Constant Headache (Riff) Tab por Joyce Manor

tablatura Ukulele sin acordes.

Añadir esta tab a su SongBook
Tablature / ChordsFont size: A- A A+

¿ No sabe cómo leer una tablatura o un acorde ?

curso de ukulele

Here's the main riff during the start and chorus:

E|-----64-|----------|-----97-|-----7646-|
A|--4-----|--4--6-97-|-47-4---|-47-4-----|
C|-4--4---|-3--3-----|--------|----------|
G|--------|----------|--------|----------|

And here's the solo at the end:

E|-76767676-76767676-77-6-66--|-------------------22-4-642-|
A|--------------------------7-|-42424242-42424242----------|
C|----------------------------|----------------------------|
G|----------------------------|----------------------------|

 

Comentarios (2)
Debes iniciar sesión para unirte a la discusión
o Registrarse

 

greenfly avatar
I noticed during the main riff, I'm pretty sure the first 3 notes of last measure step back down again, so it'd be
|-----7646-|
|--4-------|
|-3--3-----|
|----------|

thank you so much, I love this song and this sounds great!
13 Jun 2020
pplantt avatar
flag for US(ISO2) (delaware)
did you.... switch the a and e strings on purpose?
17 May 2018
Acerca de esta canción

No hay información por esta canción.