Heartbeats (the Knife Cover) Tab por Jose Gonzalez

tablatura Ukulele sin acordes.

8.5/10
ImprimirAñadir esta tab a su SongBook

Tablature / Chords (Canción entera)

Font size: A- A A+

Artista: 
Album:  desconocido
Key: desconocidotablatura (sin acordes )
# Tuning: GAEA

# Verse:

|---0-----0---7-----0---------
|-----4h5---5---4h5---5---0---
|-0-------------------------0-
|----------------------6------

-----0---7-----0---7--0-----
-4h5---5---4h5---5------0-2-
----------------------------
----------------------------

-4-----4-----4-------0---0-------0-----0----0--|
---2-----0h2---0-------------5-----4h5---5-----|
-------------------4---5---5-------------------|
-----2-----------2-------------2-----------2---|


# Bridge:


|-----0-----0------0-----0---| x2
|---7-----7------7-----7-----|
|-7------------7-------------|
|-------9------------9-------|


|-----0-4---0------0-4---0---| x2
|---5-----5------5-----5-----|
|-5------------5-------------|
|----------------------------|



|-----0-----0------0-----0---| x2
|---7-----7------7-----7-----|
|-7------------7-------------|
|-------9------------9-------|


|-7-
|-0-
|-0-
|---

Tab por , 12 oct 2010

Comentarios (1)

Comentar
¡Comparte tus patrones de rasgueo, acordes o consejos para tocar este tab!
Filtrar por:
sarahearab avatar
flag for CA(ISO2) (Halifax)
I wish there was more versions of this tab, overall decent tab though!
15 Jan 2011
Comentario

Top Tabs & Acordes de Jose Gonzalez, ¡no te pierdas estas canciones!

Acerca de esta canción: Heartbeats (the Knife Cover)

No hay información por esta canción.

¿Has versionado a Heartbeats (the Knife Cover) con tu Ukelele? Comparte tu trabajo!
Submit a cover