Somebody's Baby Tab por Jon Foreman

tablatura Ukulele sin acordes.

Añadir esta tab a su SongBook
Tablature / ChordsFont size: A- A A+

¿ No sabe cómo leer una tablatura o un acorde ?

curso de ukulele

H             H            H            H         
A|----2--------2----2------2-----2-------2----2------2----|
E|---------0-------------0------------0------------0------|
C|--0----2--------0----2-------0----2-------0----2--------|
G|---0-0-----0--0--0-0----0-0---0-0-----0-0--0-0----0-0---|
H H H H H H
A|----2--------2----2------2---0-2-------2--0-2------2-----2------2----2------2---|
E|---------0-------------0------------0------------0------------0-----------0-----|
C|--0----2--------0----2------------2------------2------5-----2------5----2-------|
G|---0-0-----0--0--0-0----0-0---0-0-----0-0--0-0----0-0---0-0----0-0--0-0----0-0--|
H H
A|----2-------2-----2-------2--|
E|---------0-------------0-----|
C|--0----2-------0-----2-------|
G|---0-0-----0-0---0-0-----0-0-|
H H H H H H
A|----2--------2----2------2---0-2-------2--0-2------2-----2------2----2------2---|
E|---------0-------------0------------0------------0------------0-----------0-----|
C|--0----2--------0----2------------2------------2------5-----2------5----2-------|
G|---0-0-----0--0--0-0----0-0---0-0-----0-0--0-0----0-0---0-0----0-0--0-0----0-0--|
H H
A|----2-------2-----2-------2--|
E|---------0-------------0-----|
C|--0----2-------0-----2-------|
G|---0-0-----0-0---0-0-----0-0-|
H H H H P H H
A|----3------3----3------3---0-3-----3--0-3-------3-2----3------3----3-----3-------|
E|---------0-----------0-----------0-----------0--------------0-----------0--------|
C|-5-----2------5----2-----------2-----------2--------5-----2------5----2----------|
G|---0-0----0-0--0-0----0-0---0-0---0-0--0-0----0-------0-0----0-0--0-0---0-0------|
H H H H
A|-0--3------3-----3-----3-----3-----3----3-----3----|
E|---------0----3------0-----------0----------0------|
C|-------2-----------2------0----2------0---2--------|
G|---0-0----0-0---0-0---0-0---0-0---0-0--0-0---0-0---|
H H H H H H
A|----2--------2----2------2---0-2-------2--0-2------2-----2------2----2------2---|
E|---------0-------------0------------0------------0------------0-----------0-----|
C|--0----2--------0----2------------2------------2------5-----2------5----2-------|
G|---0-0-----0--0--0-0----0-0---0-0-----0-0--0-0----0-0---0-0----0-0--0-0----0-0--|
H H
A|----2-------2-----2-------2--|
E|---------0-------------0-----|
C|--0----2-------0-----2-------|
G|---0-0-----0-0---0-0-----0-0-|
H H H H H H
A|----2--------2----2------2---0-2-------2--0-2------2-----2------2----2------2---|
E|---------0-------------0------------0------------0------------0-----------0-----|
C|--0----2--------0----2------------2------------2------5-----2------5----2-------|
G|---0-0-----0--0--0-0----0-0---0-0-----0-0--0-0----0-0---0-0----0-0--0-0----0-0--|
H H
A|----2-------2-----2-------2--|
E|---------0-------------0-----|
C|--0----2-------0-----2-------|
G|---0-0-----0-0---0-0-----0-0-|
H H H H P H H
A|----3------3----3------3---0-3-----3--0-3-------3-2----3------3----3-----3-------|
E|---------0-----------0-----------0-----------0--------------0-----------0--------|
C|-5-----2------5----2-----------2-----------2--------5-----2------5----2----------|
G|---0-0----0-0--0-0----0-0---0-0---0-0--0-0----0-------0-0----0-0--0-0---0-0------|
H H H H
A|-0--3------3-----3-----3-----3-----3----3-----3----|
E|---------0----3------0-----------0----------0------|
C|-------2-----------2------0----2------0---2--------|
G|---0-0----0-0---0-0---0-0---0-0---0-0--0-0---0-0---|
H H H H H H
A|----2--------2----2------2---0-2-------2--0-2------2-----2------2----2------2---|
E|---------0-------------0------------0------------0------------0-----------0-----|
C|--0----2--------0----2------------2------------2------5-----2------5----2-------|
G|---0-0-----0--0--0-0----0-0---0-0-----0-0--0-0----0-0---0-0----0-0--0-0----0-0--|
H H
A|----2-------2-----2-------2--|
E|---------0-------------0-----|
C|--0----2-------0-----2-------|
G|---0-0-----0-0---0-0-----0-0-|
H H H H H H
A|----2--------2----2------2---0-2-------2--0-2------2-----2------2----2------2---|
E|---------0-------------0------------0------------0------------0-----------0-----|
C|--0----2--------0----2------------2------------2------5-----2------5----2-------|
G|---0-0-----0--0--0-0----0-0---0-0-----0-0--0-0----0-0---0-0----0-0--0-0----0-0--|
H H H H
A|----2-------2-----2-------2----2-----2----2-----2----|
E|---------0-------------0-----------0----------0------|
C|--0----2-------0-----2-------0---2------0---2--------|
G|---0-0-----0-0---0-0-----0-0--0-0---0-0--0-0---0-0---|
A|--3--5-5-7-3--5-5-7-0--5-5-7-0--5-5-7----5-5-7----5-5-7-3--5-5-7-3--5-5-7---5-|
E|--------------------------------------1--------1------------------------------|
C|------------------------------------------------------------------------------|
G|---0---------0--------0--------0--------0--------0--------0--------0------0---|
A|-3--5-5-7-3---5-5-7-0--5-5-7-0--5-5-7----5-5-7---5-5-7-5-5--3--5-5-7-5-5-3---5-5-7-5-5|
E|--------------------------------------1--------1--------------------------------------|
C|--------------------------------------------------------------------------------------|
G|---0---------0--------0--------0--------0-------0-------0-----0-------0-----0-------0-|
H H H H P H H
A|----3------3----3------3---0-3-----3--0-3-------3-2----3------3----3-----3-------|
E|---------0-----------0-----------0-----------0--------------0-----------0--------|
C|-5-----2------5----2-----------2-----------2--------5-----2------5----2----------|
G|---0-0----0-0--0-0----0-0---0-0---0-0--0-0----0-------0-0----0-0--0-0---0-0------|
H H H H
A|-0--3------3-----3-----3-----3-----3----3-----2----|
E|---------0----3------0-----------0----------0------|
C|-------2-----------2------0----2------0---2--------|
G|---0-0----0-0---0-0---0-0---0-0---0-0--0-0---0-0---|
H H H
A|---------------3--------------3---0------------3----0--------2---3---------|
E|-----3-----0---------3-----0----------3----0------------3------------------|
C|--0------2-------0-------2---------------2---------------------------------|
G|----0--0-----0--0---0--0----0--0----0--0-----0--0-----0---0----0---0-------|
H H H
A|---------------3--------------3---0------------3----0---3-----2---3--------|
E|-----3-----0---------3-----0----------3----0-------------------------------|
C|--0------2-------0-------2---------------2---------------------------------|
G|----0--0-----0--0---0--0----0--0----0--0-----0--0-----0---0-----0---0------|
H H H
A|---------------3--------------3---0------------3----0---3-----2---3--------|
E|-----3-----0---------3-----0----------3----0-------------------------------|
C|--0------2-------0-------2---------------2---------------------------------|
G|----0--0-----0--0---0--0----0--0----0--0-----0--0-----0---0-----0---0------|
H H H
A|---------------3--------------3---0------------3----0---3-----2---3--------|
E|-----3-----0---------3-----0----------3----0-----------------------------0-|
C|--0------2-------0-------2---------------2-------------------------------0-|
G|----0--0-----0--0---0--0----0--0----0--0-----0--0-----0---0-----0---0----0-|

 

Comentarios (0)
Ningún comentario :(
¿Necesitas ayuda, un consejo para compartir o simplemente quieres hablar sobre esta canción? Comience la discusión

Debes iniciar sesión para unirte a la discusión
o Registrarse

 

Acerca de esta canción

No hay información por esta canción.