I Wanna Know Tab por Joe

1 Acordes utilizados en la canción :

Añadir esta tab a su SongBook

Ver esos acordes para el baritono

Transpose chords:
Tablature / ChordsFont size: A- A A+

¿ No sabe cómo leer una tablatura o un acorde ?

curso de ukulele


A|-5---------------------------------------|
E|-5---------------------------------------|
C|-6---------------------------------------|
G|-7---------------------------------------|



A|-4---------------------------------------|
E|-4---------------------------------------|
C|-4---------------------------------------|
G|-4---------------------------------------|



A|-2---------------------------------------|
E|-2---------------------------------------|
C|-2---------------------------------------|
G|-2---------------------------------------|



A|-0---------------------------------------|
E|-0---------------------------------------|
C|-1---------------------------------------|
G|-2---------------------------------------|

 

Comentarios (0)
Ningún comentario :(
¿Necesitas ayuda, un consejo para compartir o simplemente quieres hablar sobre esta canción? Comience la discusión

Debes iniciar sesión para unirte a la discusión
o Registrarse

 

Acerca de esta canción

No hay información por esta canción.