Rules (Intro) Tab por Jayme De

tablatura Ukulele sin acordes.

Añadir esta tab a su SongBook
Tablature / ChordsFont size: A- A A+

¿ No sabe cómo leer una tablatura o un acorde ?

curso de ukulele

|-----5-----5-----5-----5--
|--3-----3-----3-----3-----
|--------------------------
|-----0-----4-----4-----4--

A|--2--5--2--5--2--5--2--5--
|--------------------------
C|--------------------------
G|-----2-----4-----4-----4--

 

Comentarios (0)
Ningún comentario :(
¿Necesitas ayuda, un consejo para compartir o simplemente quieres hablar sobre esta canción? Comience la discusión

Debes iniciar sesión para unirte a la discusión
o Registrarse

 

Acerca de esta canción

No hay información por esta canción.