Clush (Riff) Tab por Isles and Glaciers

tablatura Ukulele sin acordes.

Añadir esta tab a su SongBook
Tablature / ChordsFont size: A- A A+

¿ No sabe cómo leer una tablatura o un acorde ?

curso de ukulele

Intro/Post-Chorus/Outro                              
A|--------------------------||
E|-5--------5--4----------||
C|------------------------||
G|----9--10--------10--9----||

Lead
A|-----------------------------------------------------|
E|----------5-----------------------5-4-5----------5---|
C|-4-4-----------------------4-----------------------|
G|-----5--4---5--7--5--4-5-----5--4-------4-4-5--4-----|

A|---------------------------------------------------------------|
E|--------5--------------------------------5-------------4-4-5---|
C|-4------------------------4----4----4--------4---4---4---------|
G|---5--4---5--9--5--7--5-----5----5----5--------4---4-----------|

 

Comentarios (0)
Ningún comentario :(
¿Necesitas ayuda, un consejo para compartir o simplemente quieres hablar sobre esta canción? Comience la discusión

Debes iniciar sesión para unirte a la discusión
o Registrarse

 

Acerca de esta canción

No hay información por esta canción.