Marukaite Chikyuu And Hatafutte Parade Tab por Hetalia

tablatura Ukulele sin acordes.

Añadir esta tab a su SongBook
Tablature / ChordsFont size: A- A A+

¿ No sabe cómo leer una tablatura o un acorde ?

curso de ukulele

A| --------------------------------6---------6----------------------------------------------------------6-
E| --0--2--4--0--2--4--5---------0--2-----0--2--4------0--2--4--0--2--4--5--------2--0----0---------------
C| -------------------------------------------------------------------------------------------------------
G| -------------------------------------------------------------------------6--4--------------------------

A| --------------------------------------------------------------------------------------
E| --------------------------5--5-5-5--4--2--4----0--------------------------------------
C| --------------------------------------------------------------------------------------
G| --6---6--8---6-6--4--4-4--------------------------6--6-8---6--4--6-8--9---4--6--8---9-

A| --2--2-2--2-2--2-4--2-2---5--5-5--5-5--5-7--5-
E| -----------------------------------------------
C| -----------------------------------------------
G| -----------------------------------------------

A| -------------------------------------------7---------------------------
E| -----------------------------------------------------------------------
C| --------------------------------------2--------------------------------
G| --4--4--0--0--4--4--0--0--5--5-5---------4----2--2-2--5--4--0--2--4--2-

A| -------------------------------------------7------------------------------
E| --------------------------------------------------------------------------
C| --------------------------------------2-----------------------------2-----
G| --4--4--0--0--4--4--0--0--5--5-5---------4----2--2-2--5--4--2-0--2-----0--

A| --7--7-5--5-3--3-2--2--------5----------7-5--
E| --------------------------------------------------------------------2----2--
C| ----------------------------------------------------------------------------
G| ----------------------------2--2----0----2---------5-4-2-0------0----0------

 

Comentarios (0)
Ningún comentario :(
¿Necesitas ayuda, un consejo para compartir o simplemente quieres hablar sobre esta canción? Comience la discusión

Debes iniciar sesión para unirte a la discusión
o Registrarse

 

Acerca de esta canción

No hay información por esta canción.