Complete Hedwig's Theme Tab por Harry Potter

tablatura Ukulele sin acordes.

9.4/10
ImprimirAñadir esta tab a su SongBook

Tablature / Chords (Canción entera)

Font size: A- A A+

Artista: 
Album:  desconocido
Key: desconocidotablatura (sin acordes )
A---0-3-2-0--7-5--2---0-3-2---------
E-0-------------------------4-7-0---
C-----------------------------------
G-----------------------------------


A---0--3-2-0--7--10-9-8---8-7-6--6-3
E-0---------------------9------4----
C-----------------------------------
G-----------------------------------


A-3-7--3-7--3-8-7-6--6-7-3-0---3-0-
E----------------------------0-----
C----------------------------------
G----------------------------------


A-3-7--3-7--3-10-9-8--5--8-7-6---3-0
E------------------------------0----
C-----------------------------------
G-----------------------------------

Tab por , 01 may 2011

Comentarios (9)

Comentar
¡Comparte tus patrones de rasgueo, acordes o consejos para tocar este tab!
Filtrar por:
Guacez avatar
nice but not complete
24 Feb 2021
Comentario
PhantomReaper666 avatar
flag for CN(ISO2) (Beijing)
yea. NOT complete.
23 Sep 2018
Comentario
Tinkle11543 avatar
flag for US(ISO2) (Ft Collins)
When it said complete I thought it would include the fast part like the Quiditch part
11 Jun 2018
Comentario
noemnd avatar
genius
11 Mar 2015
Comentario
Elle- avatar
amazing!
25 Jan 2012
Comentario
lupin avatar
flag for MY(ISO2) (Skudai)
superbly awesome
24 Aug 2011
Comentario
haileyec avatar
LOVE this! its perfect!
03 Aug 2011
Comentario
kippylizzie avatar
Very good Tabbing! :D
28 Jun 2011
Corrección
Braswilian avatar
It's so awesome I LOVE it
13 May 2011
Comentario

Top Tabs & Acordes de Harry Potter, ¡no te pierdas estas canciones!

Acerca de esta canción: Complete Hedwig's Theme

No hay información por esta canción.

¿Has versionado a Complete Hedwig's Theme con tu Ukelele? Comparte tu trabajo!
Submit a cover