Give A Little (Riff) Tab por Hanson

tablatura Ukulele sin acordes.

ImprimirAñadir esta tab a su SongBook
Tablature / ChordsFont size: A- A A+

¿ No sabe cómo leer una tablatura o un acorde ?

curso de ukulele

--3----3--------------------------------3--------
------------1---1---1--1-----3-3-3---------------
----------4---4---4---4---4----------------------
-----4------------------------------2------------

---------------------------------------5---------
--------2---2---2---2---2----5-5-5---------------
-2-1-2-------------------------------------------
----------0---0---0---0-------------4------------

 

Comentarios (0)
Ningún comentario :(
¿Necesitas ayuda, un consejo para compartir o simplemente quieres hablar sobre esta canción? Comience la discusión

Debes iniciar sesión para unirte a la discusión
o Registrarse

 

Acerca de esta canción

No hay información por esta canción.