What Is Love Tab por Haddaway

4 Acordes utilizados en la canción: Gm, A#, Dm, F

Añadir esta tab a su SongBook
Tablature / ChordsFont size: A- A A+

¿ No sabe cómo leer una tablatura o un acorde ?

curso de ukulele

tonalidad original : +0.5 mediotono [ ? ]
A|-1-0-1---1-0-1---|-1-0-1---1-0-1---|-----------------|-----------------|
E|-------3-------3-|-------1-------1-|-------1-------1-|-------1-------1-|
C|-----------------|-----------------|-----------------|-----------------|
G|-----------------|-----------------|-2-0-2---2-0-2---|-2-0-2---2-0-2---|
Gm Gm A# A# Dm Dm F F

A|-1-1-1-1---|-1-1-1-1---|-0-0-0-0---|-0-0-0-0---|
E|-----------|-----------|-----------|-----------|
C|-2-2-2-2-3-|-2-2-2-2-3-|-2-2-2-2-3-|-5-5-5-5-3-|
G|-----------|-----------|-----------|-----------|
Gm Gm A# A# Dm Dm F F

 

Comentarios (1)
Debes iniciar sesión para unirte a la discusión
o Registrarse

 

Pipolechien avatar
flag for FR(ISO2) (Mérignac)
Good one... Personally, I adjust the final F# by C.
05 Oct 2019
Acerca de esta canción

No hay información por esta canción.