The Fire Tab por H-Blockx

0 Acordes utilizados en la canción:

Añadir esta tab a su SongBook

Ver esos acordes para el baritono

Transpose chords:
Acordes:
Mantén los accordes en la pantalla mientras te desplazas
Tablature / ChordsFont size: A- A A+

¿ No sabe cómo leer una tablatura o un acorde ?

curso de ukulele

Tuning: Drop Db Db if this dunt sound rite the try just drop D D

Intro
eb:------------------------------------------------
bb:------------------------------------------------
gb:------------------------------------------------
db:--xx-0-x-x-xx-5-x-x-xx-0-x-x-xx-5-x-------------
ab:--xx-0-x-x-xx-5-x-x-xx-0-x-x-xx-5-x-------------
db:--xx-0-x-x-xx-5-x-x-xx-0-x-x-xx-5-x-------------
pm .. . . .. . . .. . . .. .

eb:------------------------
bb:--------------------5^-- <--Not sure bout this note but it sounds fine only use this
gb:------------------------ note on the 2nd time round (use wah)
db:-00-22-5-2-2h(3p2)-------
ab:-00-22-5-2-2h(3p2)------- x8
db:-00-22-5-2-2h(3p2)-------
^--i think he hammers on and pulls of :s but if not the just let the 2 ring out a bit, u choose!
Verse

eb:-----------
bb:----------- This is heard faintly in the background so just play this a few times
gb:-----------
db:-xx-0------
ab:-xx-0------
db:-xx-0------

Pre chorus

eb:-----------------------------
bb:-5^--------------------------
gb:-----------------------------
db:---0-22/5\2-2h3p2------------ x4
ab:-----------------------------
db:-----------------------------

eb:------------------------
bb:--------------------5^--
gb:------------------------ x8
db:-00-22-5-2-2h3p2--------
ab:-00-22-5-2-2h3p2--------
db:-00-22-5-2-2h3p2--------

Verse

eb:-----------
bb:-----------
gb:-----------
db:-xx-0------
ab:-xx-0------
db:-xx-0------

Pre chorus

eb:-----------------------------
bb:-5^--------------------------
gb:-----------------------------
db:---0-22/5\2-2h3p2------------ x4
ab:-----------------------------
db:-----------------------------

eb:------------------------
bb:--------------------5^--
gb:------------------------ x8
db:-00-22-5-2-2h3p2--------
ab:-00-22-5-2-2h3p2--------
db:-00-22-5-2-2h3p2--------

eb:------------------------------------
bb:------------------------------------
gb:----------------------9999----------
db:-00-xx-00-xx-00-xx-00-xxxx---------- x4
ab:-00-xx-00-xx-00-xx-00-7777----------
db:-00-xx-00-xx-00-xx-00---------------

eb:---------------------------------------------------
bb:---------------------------------------------------
gb:---------------------------------------------------
db:--xx-0-x-x-xx-5-x-x-xxx-0-x-x-xxxx-5-x-------------
ab:--xx-0-x-x-xx-5-x-x-xxx-0-x-x-xxxx-5-x------------- Intro but add more pm and speed up
db:--xx-0-x-x-xx-5-x-x-xxx-0-x-x-xxxx-5-x------------- the pms a bit where there are
pm .. . . .. . . ... . . .... . more than the intro

eb:------------------------
bb:--------------------5^--
gb:------------------------ x8
db:-00-22-5-2-2h3p2--------
ab:-00-22-5-2-2h3p2--------
db:-00-22-5-2-2h3p2--------

End on
eb:------------------------------------
bb:------------------------------------
gb:----------------------9999----------
db:-00-xx-00-xx-00-xx-00-xxxx---------- x2
ab:-00-xx-00-xx-00-xx-00-7777----------
db:-00-xx-00-xx-00-xx-00---------------

 

Comentarios (0)
Ningún comentario :(
¿Necesitas ayuda, un consejo para compartir o simplemente quieres hablar sobre esta canción? Comience la discusión

Debes iniciar sesión para unirte a la discusión
o Registrarse

 

Acerca de esta canción

No hay información por esta canción.