Crystal Kingdom Tab por Griffin McElroy

8 Acordes utilizados en la canción: Em, G, A, Am, B, Cmaj7, D, E

Añadir esta tab a su SongBook
Tablature / ChordsFont size: A- A A+

¿ No sabe cómo leer una tablatura o un acorde ?

curso de ukulele

# Tune your G G string down to a B B.

(Intro)

Em Em
A|-------2------------2-----|
E|-------3------------3-----|
C|-4------------------------| x2
B|--------------0-----------|

(Verse)

Em Em G G A A
A|-------2------------2------------2-----0-----|
E|-------3------------3------------3-----0-----|
C|-4-------------------------2-----------1-----|
B|---------------0-----------------------------|

Pulled from my home in- side a cloud,


Am Am Em Em B B
A|------0--------------2-----------2------2----|
E|------0--------------3-----------3------2----|
C|-0------------4-------------------------3----|
B|---------------------------0-----------------|

Lost to the dark, I drift a- lone


Em Em A A B B
A|------2-------------2-------------0------2---|
E|------3-------------3-------------0------2---|
C|-4-------------------------1-------------3---|
B|--------------0------------------------------|

Now I'm re- turned be- yond the shroud


Am Am Em Em B B Em Em
A|-------0------------2-------------2------2---|
E|-------0------------3-------------2------3---|
C|-0------------4------------3-------------4---|
B|---------------------------------------------|

E E- ver to reign u- pon my throne



Cmaj7 Cmaj7 D D E E
A|-2-----------0----------2--------------2-----|
E|-0-----------2----------4------5-------4-----|
C|-0-----------2----------4---------6----4-----|
B|-0-----------0----------0--------------0-----|

Here in my Crystal King- dom

 

Comentarios (3)
Debes iniciar sesión para unirte a la discusión
o Registrarse

 

BenPhantomhive avatar
flag for ES(ISO2) (Madrid)
the end chords sound kindah strange but the rest is good
16 Feb 2021
Fishyukulele avatar
I like this tab a lot! It sounds very close to griffin's original composition! The only thing I critique is the beginning portion of the song, it just needs to sound a bit higher-pitched! Great job!
09 Jan 2020
Mantha8225 avatar
It's fast to learn. A little hard to get the pacing right, but overall very creative.
In the last line, the D chord should be 0222, not 0220
05 Nov 2019
Acerca de esta canción

No hay información por esta canción.