Você Não Sabe Quantas Horas Eu Passei Olhando Pra Você Tab por gorduratrans

8 Acordes utilizados en la canción: E5, EmMaj7, Emaj7, C#m5, A, A5, F#m5, B5

Añadir esta tab a su SongBook
Tablature / ChordsFont size: A- A A+

¿ No sabe cómo leer una tablatura o un acorde ?

curso de ukulele

E5 E5 | EmMaj7 EmMaj7 | Emaj7 Emaj7 | C#m5 C#m5 | A A
A|-7--|-6------|-6-----|-4----|-4-
E|-7--|-7------|-4-----|-4----|-5-
C|-4--|-4------|-4-----|-4----|-4-
G|-4--|-4------|-4-----|-6----|-6-
A5 A5 | F#m5 F#m5 | C#m5 C#m5 | B5 B5
A|-0--|-0----|-4----|-2-
E|-0--|-2----|-0----|-2-
C|-4--|-1----|-1----|-6-
G|-2--|-2----|-1----|-4-

(Ritmo baixo da letra)

Intro: { E5 E5 EmMaj7 EmMaj7 Emaj7 Emaj7 E5 E5 EmMaj7 EmMaj7 Emaj7 Emaj7 C#m5 C#m5 A A C#m5 C#m5 A A } 2x

E5 E5 EmMaj7 EmMaj7 Emaj7 Emaj7 E5 E5
Você não sabe quantas horas
EmMaj7 EmMaj7 Emaj7 Emaj7
eu passei olhando pra você
C#m5 C#m5 A A
Achando que eu era
C#m5 C#m5 A A
Um cara de muita sorte
E5 E5 EmMaj7 EmMaj7 Emaj7 Emaj7 E5 E5
Eu não mais encarava
EmMaj7 EmMaj7 Emaj7 Emaj7
Por sempre saber que perder
C#m5 C#m5 A A C#m5 C#m5 A A
Era sentença certa de morte


A5 A5 F#m5 F#m5 C#m5 C#m5
Você não sabe que enganava
B5 B5
Meu ego até perceber
A5 A5 F#m5 F#m5 C#m5 C#m5
Que nas rasuras de um milagre
B5 B5
Era só eu e você
A5 A5 F#m5 F#m5 C#m5 C#m5
E E ver um dia essa sombra
B5 B5 A5 A5 F#m5 F#m5
Que eu costumava ser

Solo:{ E5 E5 EmMaj7 EmMaj7 Emaj7 Emaj7 E5 E5 EmMaj7 EmMaj7 Emaj7 Emaj7 C#m5 C#m5 A A C#m5 C#m5 A A } 2x

A5 A5 F#m5 F#m5 C#m5 C#m5
Você não sabe quantas horas
B5 B5
Eu passei olhando pra você
A5 A5 F#m5 F#m5
Achando que eu era
C#m5 C#m5
Um cara de muita sorte


Ritmo 4/4 90bpm

1 1 ½ ½ ½ 1 ½ ½ ½ ½ ½ ½ ½
A|-7-7-7-7-7-6-6-6-6-6-6-6-6-|
E|-7-7-7-7-7-7-4-4-4-4-4-4-4-|
C|-4-4-4-4-4-4-4-4-4-4-4-4-4-|
G|-4-4-4-4-4-4-4-4-4-4-4-4-4-|

1 1 ½ ½ ½ 1 ½ ½ ½ ½ ½ ½ ½
|-4-4-4-4-4-4-4-4-4-4-4-4-4-|
|-4-4-4-4-4-5-5-5-5-5-5-5-5-|
|-4-4-4-4-4-4-4-4-4-4-4-4-4-|
|-6-6-6-6-6-6-6-6-6-6-6-6-6-|

1 1 ½ ½ ½ 1 ½ ½ ½ ½ ½ ½ ½
|-0-0-0-0-0-0-0-0-0-0-0-0-0-|
|-0-0-0-0-0-2-2-2-2-2-2-2-2-|
|-4-4-4-4-4-1-1-1-1-1-1-1-1-|
|-2-2-2-2-2-2-2-2-2-2-2-2-2-|

1 1 ½ ½ ½ 1 ½ ½ ½ ½ ½ ½ ½
|-4-4-4-4-4-2-2-2-2-2-2-2-2-|
|-0-0-0-0-0-2-2-2-2-2-2-2-2-|
|-1-1-1-1-1-6-6-6-6-6-6-6-6-|
|-1-1-1-1-1-4-4-4-4-4-4-4-4-|

 

Comentarios (0)
Ningún comentario :(
¿Necesitas ayuda, un consejo para compartir o simplemente quieres hablar sobre esta canción? Comience la discusión

Debes iniciar sesión para unirte a la discusión
o Registrarse

 

Acerca de esta canción

No hay información por esta canción.