The Silver Cord Tab por Gojira

tablatura Ukulele sin acordes.

10/10
ImprimirAñadir esta tab a su SongBook

Tablature / Chords (Canción entera)

Font size: A- A A+

Artista: 
Album:  desconocido
Key: desconocidotablatura (sin acordes )
---------2-------2-- -------2------------ ---------2----------
--0-2---------2----- --0-------------0--- ----2--------2------
-------------------- -------------------- --2---2---------2---
-------0---0----2--- -----0---0--0------- --------------------

--------2----------- ---------2-------2-- -------2------------
--2--------2--2----- --0-2---------2----- --0-------------0---
------2----------2-- -------------------- --------------------
-------------------- -------0---0----2--- -----0---0--0-------

---------2---------- --(3)-5-5-5-5-7-5---
----2--------2------ --------------------
--2---2---------2--- --------------------
-------------------- --------------------

---------2-------2-- -------2------------ ---------2----------
--0-2---------2----- --0-------------0--- ----2--------2------
-------------------- -------------------- --2---2---------2---
-------0---0----2--- -----0---0--0------- --------------------

--------2----------- ---------2-------2-- -------2------------
--2--------2--2----- --0-2---------2----- --0-------------0---
------2----------2-- -------------------- --------------------
-------------------- -------0---0----2--- -----0---0--0-------


---------2---------- --(3)-5-5-5-5-7-5--- ---------2-------2--
----2--------2------ -------------------- --0-2---------2-----
--2---2---------2--- -------------------- --------------------
-------------------- -------------------- -------0---0----2---

-------------------- ---------2-------2-- --------------------
---0---------------- --0-2---------2----- ---0----------------
-------------------- -------------------- --------------------
-------------------- -------0---0----2--- --------------------

---------2-------2-- --------------------
--0-2---------2----- ---0----------------
-------------------- --------------------
-------0---0----2--- --------------------

---------2-------2-- --------------------
--0-2---------2----- ---0----------------
-------------------- --------------------
-------0---0----2--- --------------------

---------2-------2-- --------------------
--0-2---------2----- ---0----------------
-------------------- --------------------
-------0---0----2--- --------------------

---------2-------2-- --------------------
--0-2---------2----- ---0----------------
-------------------- --------------------
-------0---0----2--- --------------------

Tab por , 31 may 2021

Comentarios (0)

Ningún comentario :(
¿Necesitas ayuda, un consejo para compartir o simplemente quieres hablar sobre esta canción? Comience la discusión

Comentar
¡Comparte tus patrones de rasgueo, acordes o consejos para tocar este tab!

Top Tabs & Acordes de Gojira, ¡no te pierdas estas canciones!

Acerca de esta canción: The Silver Cord

No hay información por esta canción.

¿Has versionado a The Silver Cord con tu Ukelele? Comparte tu trabajo!
Submit a cover