Season 2 Episode 3 (Intro) Tab por Glass Animals

tablatura Ukulele sin acordes.

ImprimirAñadir esta tab a su SongBook
Tablature / ChordsFont size: A- A A+

¿ No sabe cómo leer una tablatura o un acorde ?

curso de ukulele

For original tuning put a capo on fret 5 (it sounds fine without one, though)


A|-5----------------------5----------|
E|--6----------------------6---------|
C|----7-3-5---3---5---7-----7-3-5----|
G|-----------------------------------|


A|-----------------------------------|
E|-----------------------------------|
C|-5-7-8-7-5-3---5-3-0--2-3----------|
G|-----------------------------------|

 

Comentarios (0)
Ningún comentario :(
¿Necesitas ayuda, un consejo para compartir o simplemente quieres hablar sobre esta canción? Comience la discusión

Debes iniciar sesión para unirte a la discusión
o Registrarse

 

Acerca de esta canción

No hay información por esta canción.