Two Queens In A King Sized Bed Tab por Girl In Red

4 Acordes utilizados en la canción: A, C#m7, Dmaj7, Dm

Añadir esta tab a su SongBook
Tablature / ChordsFont size: A- A A+

¿ No sabe cómo leer una tablatura o un acorde ?

curso de ukulele

A|-0-4-7-4---4-7-4---4-7-12-9-7-4-2---4-|
C|---------4-------3----------------2---|
E|--------------------------------------|
G|--------------------------------------|

A|---4-4---4---0-0-2-0-0-4-7-4---4-7-4---|
C|-2-----2---1-----------------4-------3-|
E|---------------------------------------|
G|---------------------------------------|

A|-4-7-12-9-7-4-2---4---4-4---4---0-0-2-0-|
C|----------------2---2-----2---1---------|
E|----------------------------------------|
G|----------------------------------------|


[Intro]
A A C#m7 C#m7 Dmaj7 Dmaj7 Dm Dm
Two queens in a king-sized bed
A A C#m7 C#m7 Dmaj7 Dmaj7 Dm Dm
There's no mistletoe above our heads
A A C#m7 C#m7
But I'll kiss you anyway
Dmaj7 Dmaj7 Dm Dm
On Christmas day
A A C#m7 C#m7
Yeah, I'll kiss you anyway
Dmaj7 Dmaj7 Dm Dm
On Christmas day


[Chorus]
A A C#m7 C#m7
I don't have a lot to give
Dmaj7 Dmaj7 Dm Dm
But I would give you everything
A A C#m7 C#m7
All my time is yours to spend
Dmaj7 Dmaj7 Dm Dm
Let me wrap you in with my skin

With my skin

(finger picking)


[Verse]
A A C#m7 C#m7 Dmaj7 Dmaj7
Two queens in a king-sized bed
Dm Dm A A
Like angels in the snow
C#m7 C#m7 Dmaj7 Dmaj7
My only wish is one more year
Dm Dm A A
And then I want them all
C#m7 C#m7 Dmaj7 Dmaj7
Your freckled cheeks, our tangled feet
Dm Dm
The closer, the better it gets
A A C#m7 C#m7
So let's stay right here
Dmaj7 Dmaj7 Dm Dm
Until forever disappears


[Chorus]
A A C#m7 C#m7
I don't have a lot to give
Dmaj7 Dmaj7 Dm Dm
But I would give you everything
A A C#m7 C#m7
All my time is yours to spend
Dmaj7 Dmaj7 Dm Dm
Let me wrap you in with my skin

With my skin


[Outro]
A A C#m7 C#m7 Dmaj7 Dmaj7 Dm Dm
Two queens in a king-sized bed (Hmm)
A A C#m7 C#m7 Dmaj7 Dmaj7 Dm Dm
There's no mistletoe above our heads
A A C#m7 C#m7
But I'll kiss you anyway
Dmaj7 Dmaj7 Dm Dm
On Christmas day
A A C#m7 C#m7
Yeah, I'll kiss you anyway
Dmaj7 Dmaj7 Dm Dm
On Christmas day

 

Comentarios (3)
Debes iniciar sesión para unirte a la discusión
o Registrarse

 

iEverest avatar
+3
15 Dec 2020
iEverest avatar
+3
15 Dec 2020
iEverest avatar
+3
15 Dec 2020
Acerca de esta canción

No hay información por esta canción.