Porto Alegre Tab por Fresno

5 Acordes utilizados en la canción :

Añadir esta tab a su SongBook

Ver esos acordes para el baritono

Transpose chords:
Tablature / ChordsFont size: A- A A+

¿ No sabe cómo leer una tablatura o un acorde ?

curso de ukulele


C# chordC# A#m chordA#m Fm chordFm
Faz frio em porto alegre toda noite e de longe eu não posso te ver
C# chordC# A#m chordA#m Fm chordFm
Então me perco em pensamentos de um passado que a muito tempo eu quero esquecer
C# chordC# A#m chordA#m Fm chordFm
Eu só quero falar que ao teu lado eu tava errado eu nunca conseguir viver
C# chordC# A#m chordA#m Fm chordFm Fm chordFm
Mas só eu sei de você


tabrefrão
C# chordC# D# chordD# F chordF
Só não queria dizer adeus é que eu tinha tanto pra contar
C# chordC# D# chordD#
Eu não queria dizer
refrão


C# chordC# A#m chordA#m Fm chordFm
Eu volto a tanto tempo e cada vez parece que meu tempo não passou
C# chordC# A#m chordA#m Fm chordFm
Eu não encontro nada que me de motivo outra vez pra procurar o que sobrou
C# chordC# A#m chordA#m Fm chordFm
Eu vivo condenado e sem saída de um passado que parece não ter fim
C# chordC# A#m chordA#m Fm chordFm
Você não sabe de mim


tabrefrão
C# chordC# D# chordD# F chordF
Só não queria dizer adeus é que eu tinha tanto pra contar
C# chordC# D# chordD# F chordF
Eu não queria perder o que sempre foi meu
refrão


ocultar tablaturaOcultar
tablatura

e|----------------------|--------------------------------------------------------------|
B|----------------------|--------------------------------------------------------------|
G|-5~10-8/10~12--12^-10-|--------------------------------------------------------------|
D|----------------------|--------10-10-10---------------------------------10---10-10---|
A|----------------------|------------------8-8-8-10-10-10-10-10-10---------------------|
E|----------------------|-8-8-8-------------------------------------8-8-8--------------|
tablatura


C# chordC# D# chordD# F chordF
Pois não ha alguém que possa te amar
C# chordC# D# chordD# F chordF
Pois não ha alguém que possa nos salvar

(refrão)
C# chordC# D# chordD# F chordF
Eu não queria dizer adeus é que eu tinha tanto pra contar
C# chordC# D# chordD# F chordF
Só não queria perder o que sempre foi meu

(C# chordC# D# chordD# F chordF)
UÔ Ô HÔ UÔ Ô HÔ é que eu tinha tanto pra contar

(solo 2x)

ocultar tablaturaOcultar
tablatura

e|-------------------------|
B|-------------------------|
G|-5~10----10~8---5~6-5----|
D|-------------------------|
A|-------------------------|
E|-------------------------|
tablatura


C# chordC# D# chordD# F chordF
Eu não queria dizer adeus

 

Comentarios (0)
Ningún comentario :(
¿Necesitas ayuda, un consejo para compartir o simplemente quieres hablar sobre esta canción? Comience la discusión

Debes iniciar sesión para unirte a la discusión
o Registrarse

 

Acerca de esta canción

No hay información por esta canción.