Túnel Do Tempo Tab por Frejat

tablatura Ukulele sin acordes.

Añadir esta tab a su SongBook
Tablature / ChordsFont size: A- A A+

¿ No sabe cómo leer una tablatura o un acorde ?

curso de ukulele

~~~                                                 
A|-------------------------|-----------------------------------------|
E|--5------5---------------|--5------5-------------------------------|
C|----------------2--------|----------------2------------------------|
G|-----5-----5----------5--|-----5-----5-----b---5-------------------|
~~~ S S S
A|-------------------------|-----------------------------------------|
E|--5------5---------------|--5---------5----------5-5---------------|
C|----------------2--------|-----------------------------------------|
G|-----5-----5----------5--|----5---5-----5---5--------5-------------|
H H H H ~~
A|-------------------------------------------------------------------|
E|-------5----5----5-------3--3----3----3---5------------------------|
C|-----------------------4------------4-----------------------9------|
G|-5--5----5----5----5-------------------------5--5--5--5--7--7---5--|

 

Comentarios (0)
Ningún comentario :(
¿Necesitas ayuda, un consejo para compartir o simplemente quieres hablar sobre esta canción? Comience la discusión

Debes iniciar sesión para unirte a la discusión
o Registrarse

 

Acerca de esta canción

No hay información por esta canción.