Fukashigi No Carte (Intro) Tab por Fonzi M

tablatura Ukulele sin acordes.

ImprimirAñadir esta tab a su SongBook
Tablature / ChordsFont size: A- A A+

¿ No sabe cómo leer una tablatura o un acorde ?

curso de ukulele

A|-----0-------0|-----0-------0|-----0-----0--0--|
E|-------------0|-------------0|-----------0--0--|
C|--2----------2|--2----------2|--2--------2--0--|
G|--------0----0|--------0----0|--------0--0--2--|

A|-----0-------0|-----0-----3--1-0-|-----0---0--3|
E|-------------0|-----------0--0-0-|---------0--0|
C|--2----------2|--2--------0--0-0-|--2------2--0|
G|--------0----0|--------0--0--0-0-|-------0-0--0|

A|--0------0-|-----0-----0-|-----0-----0--0--0---|
E|--0--0-1---|-----------0-|-----------1--0--0---|
C|--0--------|--2--------2-|--2--------0--1--0---|
G|--0--------|--------0--0-|--------0--0--0--0---|

#When you strum, it should be really light.

 

Comentarios (0)
Ningún comentario :(
¿Necesitas ayuda, un consejo para compartir o simplemente quieres hablar sobre esta canción? Comience la discusión

Debes iniciar sesión para unirte a la discusión
o Registrarse

 

Acerca de esta canción

No hay información por esta canción.