Handlebars Tab por Flobots

8 Acordes utilizados en la canción :

Añadir esta tab a su SongBook

Ver esos acordes para el baritono

Transpose chords:
Tablature / ChordsFont size: A- A A+

¿ No sabe cómo leer una tablatura o un acorde ?

curso de ukulele


A 0-----3-----7------3-------------2-----------0---3----
E -----------------------0-----3-----------1------------
C -------------------------------------0----------------
G ------------------------------------------------------

A --------------------0----3----8----12----8---3---7--10
E -----------------1------------------------------------
C ------------------------------------------------------
G 0----4----7-------------------------------------------

A 2----5----7-------------------------------------------
E -------------0----------------------------------------
C ------------------------------------------------------
G ------------------------------------------------------
Chords Strum: Down=( Up/
Dm chordDm Am chordAm
( / ( / (
I can ride my bike with no handlebars

Bb/F chordBb/F
/ (
No handlebars

C chordC
/ (
No handlebars

Bb chordBb Gm chordGm
( / ( / (
I can ride my bike with no handlebars

F chordF
/ (
No handlebars

Am7/E chordAm7/E
/ (
No handlebars

I dont know the sturmming from here on so good luck
Dm chordDm
Look at me look at me

Am chordAm
hands in the air like it's good to be

Bb/F chordBb/F
alive and I'm a famous rapper

C chordC
even when the paths are all crookedy

Bb chordBb
I can show you how to do-si-do

Gm chordGm
I can show you how to scratch a record

F chordF
I can take apart the remote control

Am7/E chordAm7/E
And I can almost put it back together

Dm chordDm
I can tie a knot in a cherry stem

Am chordAm
I can tell you about Leif Ericson

Bb/F chordBb/F
I know all the words to De Colores

C chordC
And I'm proud to be an American

Bb chordBb
Me and my friend saw a platypus

Gm chordGm
Me and my friend made a comic book

F chordF
And guess how long it took

Am7/E chordAm7/E
I can do anything that I want cause look


Dm chordDm Am chordAm
I can keep rhythm with no metronome

Bb/F chordBb/F
No metronome

C chordC
No metronome

Bb chordBb Gm chordGm
I can see your face on the telephone

F chordF
On the telephone

Am7/E chordAm7/E
On the telephone

 

Comentarios (1)
Debes iniciar sesión para unirte a la discusión
o Registrarse

 

wasmanjr avatar
Seems to be very close and accurate.. Great job!
23 Mar 2012
Acerca de esta canción

No hay información por esta canción.