Canela Tab por Fey

16 Acordes utilizados en la canción :

Añadir esta tab a su SongBook

Ver esos acordes para el baritono

Transpose chords:
Tablature / ChordsFont size: A- A A+

¿ No sabe cómo leer una tablatura o un acorde ?

curso de ukulele

INTRO: F F* F7 F7 Bb Bb Gm Gm A A Dm Dm

F F*
e|----0~3~0---0~3~0---0-3~6-5-5--3-5-----------------|
B|--1-------1----------------------------------------|
G|---------------------------------------------------|
D|---------------------------------------------------|
A|---------------------------------------------------|
E|---------------------------------------------------|



Dm Dm E E Am Am
LA LUNA QUE NOS VIO BAILAR PEGADOS
C7 C7 F F D D E E Am Am
ES LA QUE NOS VE HOY, CADA UNO POR SU LADO
Dm Dm
NUNCA HE QUERIDO ASI
E E F F Dm Dm GF
A A GOLPES DE LOCURA Y DESESPERACION

C C C7 C7
AMOR, POR TU AMOR
F F Fm Fm
CON SABOR, A A CANELA EN RAMA
C C C7 C7
VOY, POR TU AMOR
F F Dm Dm E E C C
QUE NO DOY, NI UN PALO AL AGUA, NO

Inter: F F F7 F7 Bb Bb Gm Gm A A Dm Dm*

e|----------------------------------------------------------------|
B|----------------------------------------------------------------|
G|----------------------------------------------------------------|
D|-4-3-1----------------------------------------------------Rem*--|
A|-------4-2-4~6--------------3-5-6-5-5-5--5-7-8-8--7-5-4---------|
E|---------------6-6--6-7-6---------------------------------------|


Dm Dm E E Am Am
NO HAY TINTA NI PAPEL, EN LAS IMPRENTAS
C7 C7 F F D D E E Am Am
PARA PODER PONER LO QUE TE QUIERO EN LETRAS
Dm Dm
NO EXISTE UNA CANCION
E E F F Dm Dm G G F F
MAS TRISTE Y MAS OSCURA QUE LA DEL ADIOS

C C C7 C7
AMOR, POR TU AMOR
F F Fm Fm
CON SABOR, A A CANELA EN RAMA
C C C7 C7
VOY, POR TU AMOR
F F Dm Dm E E Am Am
QUE NO DOY, NI UN PALO AL AGUA, NO

Em Em
TENDRE QUE DESDIBUJAR
F F E E E7 E7
TUS PALABRAS DE MIS LABIOS
Am Am Em Em
EL OFICIO DE OLVIDAR
F F E E Am Am
NO ES TAN FACIL DE APRENDER, SALVAME

Inter: Gm Gm A A Dm Dm F7 F7 Bb Bb G G A A Dm Dm

Dm Dm
NO PUEDE HABER CANCION
E E F F Dm Dm G G F F
MAS TRISTE Y MAS OSCURA QUE LA DEL ADIOS

C C C7 C7
AMOR, POR TU AMOR
F F Fm Fm
CON SABOR, A A CANELA EN RAMA
C C C7 C7
VOY, QUE NO DOY,
F F Fm Fm
POR TU AMOR, NI UN PALO AL AGUA
C C C7 C7
AMOR, POR TU AMOR
F F Fm Fm
CON SABOR, A A CANELA EN RAMA
C C C7 C7
VOY, POR TU AMOR,
F F Dm Dm E E Am Am
MUERO Y SOY, FLOR QUE SE DESANGRA, AMOR

 

Comentarios (0)
Ningún comentario :(
¿Necesitas ayuda, un consejo para compartir o simplemente quieres hablar sobre esta canción? Comience la discusión

Debes iniciar sesión para unirte a la discusión
o Registrarse

 

Acerca de esta canción

No hay información por esta canción.