La Vereda De La Puerta De Atrás Tab por Extremoduro

7 Acordes utilizados en la canción :

Añadir esta tab a su SongBook

Ver esos acordes para el baritono

Transpose chords:
Acordes:
Mantén los accordes en la pantalla mientras te desplazas
Tablature / ChordsFont size: A- A A+

¿ No sabe cómo leer una tablatura o un acorde ?

curso de ukulele

-------------------------------------0-2-2-0-0---0-2--
-----------------------------0---0-2-----------2------
-0-2-3-3-2-2-0-2-------0-2-3---3----------------------
-----------------3-0-3--------------------------------


-0-1-0---0----------------1-0-5--
-------2---0---------------------
-------------2-1-0---0-----------
-------------------3---2---------


Em Em
Si no fuera
D D C C
porque hice colocado
D D Em Em
el camino de tu espera
D D C C
me habría desconectado
D D Em Em D D C C
condenado a mirarte desde fuera
D D C C
y dejar que te tocara el sol.

Em Em
Y si fuera
D D C C
mi vida una escalera
D D Em Em
me la he pasado entera
D D C C
buscando el siguiente escalón
D D Em Em D D C C
convencido que estás en el tejado
D D C C
esperando a ver si llego yo.

G G Em Em Bm Bm
Y dejar de lado la vereda de la puerta de atrás
C C
por donde te vi pasar
G G Em Em Bm Bm
como una regadera que la hierba hace que vuelva a brotar
C C
y ahora todo es campo ya.

Em Em
Sus soldados
D D C C
son flores de madera
D D Em Em
y mi ejercito no tiene
D D C C
bandera es sólo un corazón
D D Em Em D D C C
condenado a vivir entre malezas
D D C C
sembrando flores de algodón.

Em Em
Si me espera
D D C C
la muerte traicionera
D D Em Em
y antes de repartirme
D D C C
del todo me veo en un cajón
D D Em Em D D C C
que me entierren con la picha por fuera
D D C C
pa' que se la coma un ratón.

G G Em Em Bm Bm
Y muere a todas horas gente dentro de mi televisor
C C
quiero oir alguna canción
G G Em Em Bm Bm
que no hable de sandeces y que diga que no sobra el amor
C C
y que empiece en si y no en no.

G G Em Em Bm Bm
Y dejar de lado la vereda de la puerta de atrás
C C
por donde te vi marchar
G G Em Em Bm Bm
como una regadera que la hierba hace que vuelva a brotar
C C
y ahora todo es campo ya.


-----------1-0------------------------1-0-------------
-0-0-0-0-0-----0-0-0--------0-0-0-0-0-----0-0-0-------
---------------------3-2-2----------------------3-2-3-
------------------------------------------------------

-----------0--------------------------0---------------
-1-1-1-1-1---3-0-0-0--------1-1-1-1-1---3-0-0-0-------
---------------------2-0-0----------------------2-0-2-
------------------------------------------------------


F F G G Am Am
Dices que a veces no comprendes que dice mi voz
G G
como quieres que esté dentro de tu ombligo
F F G G Am Am
si entre los dedos se me escapa volando una flor
G G
y ella solita va marcando el camino.

F F G G Am Am
Dices que a veces no comprendes que dice mi voz
G G
como quieres que yo sepa lo que digo
F F G G Am Am
si entre los dedos se me escapa volando una flor
G G
y yo la dejo que me marque el camino.

 

Comentarios (2)
Debes iniciar sesión para unirte a la discusión
o Registrarse

 

ukecelia avatar
calipso d du udu
21 Oct 2019
nachoglez avatar
rasgueo?
16 Aug 2019
Acerca de esta canción

No hay información por esta canción.