Sing For You Tab por EXO

tablatura Ukulele sin acordes.

Añadir esta tab a su SongBook
Tablature / ChordsFont size: A- A A+

¿ No sabe cómo leer una tablatura o un acorde ?

curso de ukulele

A|--------------------2---------------------------5---------------|
E|---0---0--------2---2-2------0---0-0------2---2-----------------|
C|-0-------0----4------------0------------4-----------------------|
G|-4---0---4--------0--------4---0------------0-------------------|

A|----2--------2--5-2-------2----------------5-----5--------------|
E|--0-----0---------------0-----0------2---2----0-----------------|
C|-0----0-------2--------0----0------4----------6--5--------------|
G|---0-----------2---------0-------------0------2--1--------------|

A|----2--------------2------0------3--3--2-----3-5----------------|
E|--0-----0------0--------------0--------3-----0-3----------------|
C|-0----0------4----------------------2----2----------------------|
G|---0---------2---2---1----5-0-------2------0---0----------------|
H
A|---------------2-------5------------2----------5--------5-------|
E|---0---0--0----------0--------0---0------0-2-2-------0----------|
C|-0------0------2-2----------0------------------------6--5-------|
G|-4---0-------------2--------4---0----------------4---2--1-------|

A|---------------------2------0-----3-----3-----2-----3-2---------|
E|---0---0---0-----0--------------0---------3---3-------3---------|
C|-0-------0-----4--------------------2-----------2---------------|
G|-4---0---------2---2---1----5-0-------2-----------0-2-0---------|
H H
A|2-------2---5---5--2-----5------5-------------------------------|
E|----0----0--3---2-----------2-3---2-----------------------------|
C|--0-------2--------2-2------4-----------------------------------|
G|------0-------2--------2------------0---------------------------|
H
A|-------2------5----2-----5-------5------------------------------|
E|-0-0------3-----2-----------2-3----2----------------------------|
C|-0--------2--------2-2------4-----------------------------------|
G|-----0------2----------2-------------0--------------------------|
H
A|2-------2---5---5--------2------7------7------------------------|
E|----0----0--3---2----0----------7------5---7------5-------------|
C|--0-------2--------4------------9----------2------2-------------|
G|------0-------2----2---2---1----5-5-4------5-5-4--9-------------|

A|---------22222--000--3-----------2------3--2--------------------|
E|-000000--00000--000--3-----------3--(3)----3--------------------|
C|-000000--22222-------2-------------2----------------------------|
G|-000000--22222--000--2-let ring------0--2--0--------------------|
H
A|----------2----2-----2-5------------2---------7--5-----5-------|
E|-0-0---0-00----------0------0-0---0------3-5-2-2----0----------|
C|-0------0------2-2----------0------------4---4------6--5-------|
G|-----0-------------2------------0---------------0---2--1-------|

A|------------2--------2------0-----3-----3-----2-----3-2---------|
E|-0-0---0---0-----0--------------0---------3---3-------3---------|
C|-0-------0-----4--------------------2-----------2---------------|
G|-----0---------2---2---1----5-0-------2-----------0-2-0---------|
H H
A|2-------2---5---5--2-----5------5-------------------------------|
E|----0----0--3---2-----------2-3---2-----------------------------|
C|--0-------2--------2-2------4-----------------------------------|
G|------0-------2--------2------------0---------------------------|
H
A|-------2------5----2-----5-------5------------------------------|
E|-0-0------3-----2-----------2-3----2----------------------------|
C|-0--------2--------2-2------4-----------------------------------|
G|-----0------2----------2-------------0--------------------------|
H
A|2-------2---5---5--------2------7------7------------------------|
E|----0----0--3---2----0----------7------5---7------5-------------|
C|--0-------2--------4------------9----------2------2-------------|
G|------0-------2----2---2---1----5-5-4------5-5-4--9-------------|

A|---------22222--000--3-----------2------3--2--------------------|
E|-000000--00000--000--3-----------3--(3)----3--------------------|
C|-000000--22222-------2-------------2----------------------------|
G|-000000--22222--000--2-let ring------0--2--0--------------------|

 

Comentarios (1)
Debes iniciar sesión para unirte a la discusión
o Registrarse

 

lallala avatar
mmm no entiendo tanto):
es con la voz o es instrumental?
07 Apr 2020
Acerca de esta canción

No hay información por esta canción.