Folly Tab por Eskimeaux

tablatura Ukulele sin acordes.

ImprimirAñadir esta tab a su SongBook
Tablature / ChordsFont size: A- A A+

¿ No sabe cómo leer una tablatura o un acorde ?

curso de ukulele

s                                    s                                       
A 8-------2-------2------7------0-------------2-----5---5--(---)------0-------
--------------------8-
E 9---0-------0-------0--------0-------------0---------3-------------0----------------------------9
C 8---0-------0-------0----------------------------6-------2-4------------------------------------8 G 11---0-------0-------0--------2-------------0-----------------------2----------------------------11
s s
A 8-------2-------2------7------0-------------2-----5---5--(---)------0----------------------------8-
E 9---0-------0-------0--------0-------------0---------3-------------0----------------------------9
C 8---0-------0-------0----------------------------6-------2-4------------------------------------8 G 11---0-------0-------0--------2-------------0-----------------------2----------------------------11
s
A 8------------------------5-------------2----5---5--(---)---------------------------------------8-
E 9-----0-----------------0-------------0--------3----------0-----------------------------------9
C 8-----0-----------------7------------------6-------2-4----0-----------------------------------8
G 11-----0-----------------0-------------0-------------------0-----------------------------------11

A 8------2---5----5----------------0-------------------------------------------------------------8-
E 9-----0--------3----------------0-------------------------------------------------------------9
C 8---------6-----------------------------------------------------------------------------------8
G 11-----0-------------------------2-------------------------------------------------------------11
s s
A 8-------2-------2------7------0-------------2-----5---5--(---)------0----------------------------8-
E 9---0-------0-------0--------0-------------0---------3-------------0----------------------------9
C 8---0-------0-------0----------------------------6-------2-4------------------------------------8
G 11---0-------0-------0--------2-------------0-----------------------2----------------------------11
s s
A 8-------2-------2------7------0-------------2-----5---5--(---)------0----------------------------8-
E 9---0-------0-------0--------0-------------0---------3-------------0----------------------------9
C 8---0-------0-------0----------------------------6-------2-4------------------------------------8
G 11---0-------0-------0--------2-------------0-----------------------2----------------------------11
s
A 8------------------------5-------------2----5---5--(---)---------------------------------------8-
E 9-----0-----------------0-------------0--------3----------0-----------------------------------9
C 8-----0-----------------7------------------6-------2-4----0-----------------------------------8
G 11-----0-----------------0-------------0-------------------0-----------------------------------11

A 8------2---5----5----------------0-------------------------------------------------------------8-
E 9-----0--------3----------------0-------------------------------------------------------------9
C 8---------6-----------------------------------------------------------------------------------8
G 11-----0-------------------------2-------------------------------------------------------------11

 

Comentarios (0)
Ningún comentario :(
¿Necesitas ayuda, un consejo para compartir o simplemente quieres hablar sobre esta canción? Comience la discusión

Debes iniciar sesión para unirte a la discusión
o Registrarse

 

Acerca de esta canción

No hay información por esta canción.