One Day Like This (Intro) Tab por Elbow

tablatura Ukulele sin acordes.

Añadir esta tab a su SongBook
Tablature / ChordsFont size: A- A A+

¿ No sabe cómo leer una tablatura o un acorde ?

curso de ukulele

A|-2-|-2----6--2--4---2-|-2----6--2--4------|
E|-0-|-0--0-------------|-0--0--------------|
C|---|-6----------------|-------------------|
G|-1-|-1------------1---|-1------------1--1-|


A|-2----6--2--4---2-|-2----6--2--4------|-------2-|
E|-0--0-------------|-0--0--------------|-------0-|
C|-6----------------|-------------------|---------|
G|-1------------1---|-1------------1--1-|-1--2--1-|

 

Comentarios (0)
Ningún comentario :(
¿Necesitas ayuda, un consejo para compartir o simplemente quieres hablar sobre esta canción? Comience la discusión

Debes iniciar sesión para unirte a la discusión
o Registrarse

 

Acerca de esta canción

No hay información por esta canción.