I'm Shipping Up To Boston Tab por Dropkick Murphys

5 Acordes utilizados en la canción: Em, D, A, C, G

10/10
ImprimirAñadir esta tab a su SongBook

Tablature / Chords (Canción entera)

Font size: A- A A+

Artista: 
Año:  2005
Dificultad: 
3.5
(Intermedio)
Key: D, G, Em, BmAcordes y tablaturas
A|-----------------------------------------2--|
E|---------------2-3-2----------------2-3-----|
C|----4-2-4-2-4--------4-2-4-2-4-2-4----------|
G|--------------------------------------------|

A|---------------------------2----------------------|
E|---------------2-3-2----------5-3-5-3-2-3-2-------|
C|----4-2-4-2-4--------4-2---------------------2-4--|
G|--------------------------------------------------|

A|----4-2-4-2-4-6-7-6-4-2--|--4-2-4-2-4-6-7-11--|
E|-------------------------|--------------------|
C|-------------------------|--------------------|
G|-------------------------|--------------------|


A|--4-2-4-2-4-6-7-6-4-2--|-11-9-7-9-7-6-7-6-2-4---|
E|-----------------------|------------------------|
C|-----------------------|------------------------|
G|-----------------------|------------------------|




VERSE

Em Em
I'm a sailor peg, and I lost my leg
Em Em D D A A
I climbed up the topsails, I lost my leg


A|-----------------------------------------2--|
E|---------------2-3-2----------------2-3-----|
C|----4-2-4-2-4--------4-2-4-2-4-2-4----------|
G|--------------------------------------------|

A|---------------------------2----------------------|
E|---------------2-3-2----------5-3-5-3-2-3-2-------|
C|----4-2-4-2-4--------4-2---------------------2-4--|
G|--------------------------------------------------|


CHORUS

D D C C G G
I'm shipping up to Boston,(whoa oh oh) 3x
D D
I'm shipping off
C C G G Em Em
To find my wooden leg


A|-----------------------------------------2--|
E|---------------2-3-2----------------2-3-----|
C|----4-2-4-2-4--------4-2-4-2-4-2-4----------|
G|--------------------------------------------|

A|---------------------------2--------------------------------|
E|---------------2-3-2----------5--3--5--3--2--3--2-----------|
C|----4-2-4-2-4--------4-2----------------------------2----4--|
G|------------------------------------------------------------|

⇢ ¿No estás contento con esta tab? Ver 1 otra(s) versión(es)

Tab por , 01 feb 2013

Comentarios (0)

Ningún comentario :(
¿Necesitas ayuda, un consejo para compartir o simplemente quieres hablar sobre esta canción? Comience la discusión

Comentar
¡Comparte tus patrones de rasgueo, acordes o consejos para tocar este tab!

Top Tabs & Acordes de Dropkick Murphys, ¡no te pierdas estas canciones!

Acerca de esta canción: I'm Shipping Up To Boston

No hay información por esta canción.

¿Has versionado a I'm Shipping Up To Boston con tu Ukelele? Comparte tu trabajo!
Submit a cover