Gravity Falls (Intro) Tab por Disney

tablatura Ukulele sin acordes.

ImprimirAñadir esta tab a su SongBook
Tablature / ChordsFont size: A- A A+

¿ No sabe cómo leer una tablatura o un acorde ?

curso de ukulele

A|-8-5-0-5-8-5-0-5-8-5-0-3-7-4-0-4-7-4-0|
E|--------------------------------------|
C|--------------------------------------|
G|--------------------------------------|

A|-4-7-4-0-4----------------------------|
E|------------------0-1--5-3-5-0-----0-1|
C|---------------2----------------2-----|
G|--------------------------------------|

A|--------------------------------------|
E|-0--3-5-3-1----1-1-1-5-5-3-1---5-5-5-3|
C|--------------------------------------|
G|--------------------------------------|

A|-------------------------------4-4-4--|
E|-5-3-1---1-1-1-5-5-3-1---5-5-5--------|
C|--------------------------------------|
G|--------------------------------------|

A|----------------1-1-1---3---4---------|
E|-1-1-1-5-5-3-1--------3---5-----------|
C|--------------------------------------|
G|--------------------------------------|

 

Comentarios (2)
Debes iniciar sesión para unirte a la discusión
o Registrarse

 

rororora avatar
it actually sounds pretty accurate comparing the original theme song, given it's on a ukulele, already giving it a disadvantage of being accurate. Great execution! :)
18 Oct 2020
joshlerortysh avatar
flag for RU(ISO2) (Kurgan)
almost all is wrong.
18 Aug 2019
Acerca de esta canción

No hay información por esta canción.