Do You Want To Build A Snowman (Frozen) (Intro) Tab por Disney

tablatura Ukulele sin acordes.

ImprimirAñadir esta tab a su SongBook
Tablature / ChordsFont size: A- A A+

¿ No sabe cómo leer una tablatura o un acorde ?

curso de ukulele

A|-----4-----4---------4---|
E|---4-----4-----4---4-----|
C|-5-----6-----6---5-----6-|
G|-------------------------|

A|---4—---3-3-3---3-7-5-7-3-|
E|-4—---4-3-----3-----3-3-|
C|----6---0-----------0-0--|
G|--------0-----------0-0--|

A|-3---7-5-3-3---3-7-8-7-3--|
E|---3---3-----3-----3-3-3-|
C|-------2-----------0-0-0-|
G|-------0-----------0-0-0-|

A|--8-7-3---5-7-7-7-5-7-8-10-|
E|--5-5-2---3—------------0-|
C|--5-5-2---2-------------0-|
G|0-5-5-2-2-0-------------0-|

A|-3---5-7-3-7-5-3-5-7-12-|
E|-0---3---3-8-7-5-5-5-12-|
C|-0---2---4-0-0-0-0-0-13-|
G|-0-0-0---0-0-0-0-0-0-14-|

A|-3-3-3---3-7-5-7-3-3-3---|
E|-------3-----3-3-------3-|
C|-------------0-0----------|
G|-------------0-0----------|

A|3-7-5-3---2-3-0-3-|
E|----3-----3-----0-|
C|----2-----2-----0-|
G|----0-0-0-0-0-0-0-|

 

Comentarios (2)
Debes iniciar sesión para unirte a la discusión
o Registrarse

 

smith24 avatar
it sucks my
11 May 2020
smith24 avatar
it sucks without words
11 May 2020
Acerca de esta canción

No hay información por esta canción.