Cruella De Vil (Intro) Tab por Disney

tablatura Ukulele sin acordes.

ImprimirAñadir esta tab a su SongBook
Tablature / ChordsFont size: A- A A+

¿ No sabe cómo leer una tablatura o un acorde ?

curso de ukulele

A----------------1-3-4-------------------1-3-4----------------------|
E-----1-3-4--2-3------------1-3-4-4--2-3----------------------------|
C-1-2-------------------1-2-----------------------------------------|
G-------------------------------------------------------------------|

A--1--5--1--3--1--5--1--3--1--5-----1---5--4---1---4--3---1--3------|
E-------------------------------------------------------------------|
C-------------------------------------------------------------------|
G-------------------------------------------------------------------|

 

Comentarios (1)
Debes iniciar sesión para unirte a la discusión
o Registrarse

 

abbyinwonderland avatar
sounds just like it!
29 Apr 2020
Acerca de esta canción

No hay información por esta canción.