Bills, Bills, Bills Tab por Destiny's Child

tablatura Ukulele sin acordes.

10/10
ImprimirAñadir esta tab a su SongBook

Tablature / Chords (

Font size: A- A A+

Artista: 
Año:  1999
Key: desconocidotablatura (sin acordes )
--------9----------------9------------------------9-
-7-7-------7-6---7-7-------7--6-6-6-------7---------
-------------------------------------7--7------7--6-
-----7----------------7-------6-6-6----------7------


-----------10--9-------10------7--------------------
------7------------------------------9--7-----------
-7-7--------7--6------------------------6-----------
---------7---------11------11-----7-----------------

Tab por , 30 nov 2013

Comentarios (1)

Comentar
¡Comparte tus patrones de rasgueo, acordes o consejos para tocar este tab!
Filtrar por:
xxnene500xx avatar
flag for US(ISO2) (St.Louis)
this is so dumb
21 Nov 2017
Patrón de rasgueo

Top Tabs & Acordes de Destiny's Child, ¡no te pierdas estas canciones!

Acerca de esta canción: Bills, Bills, Bills

No hay información por esta canción.

¿Has versionado a Bills, Bills, Bills con tu Ukelele? Comparte tu trabajo!
Submit a cover