Soldier Of Fortune (Intro) Tab por Deep Purple

tablatura Ukulele sin acordes.

Añadir esta tab a su SongBook
Tablature / ChordsFont size: A- A A+

¿ No sabe cómo leer una tablatura o un acorde ?

curso de ukulele

Gm Gm                          F F
A|----------1--0--1/5~~-----|--3h5p3--1--0h1p0-----0~---|
E|-------3------------------|-------------------3-------|
C|----2---------------------|---------------------------|
G|-0------------------------|---------------------------|

C C Gm Gm
A|---3----------------------|--1p0-------------------|
E|---3--6h8p6\-0-3~---0-3~--|-------3~---------------|
C|---4----------------------|--------------2~--------|
G|---5----------------------|------------------------|

 

Comentarios (0)
Ningún comentario :(
¿Necesitas ayuda, un consejo para compartir o simplemente quieres hablar sobre esta canción? Comience la discusión

Debes iniciar sesión para unirte a la discusión
o Registrarse

 

Acerca de esta canción

No hay información por esta canción.