The Veldt Tab por Deadmau5

tablatura Ukulele sin acordes.

Añadir esta tab a su SongBook
Tablature / ChordsFont size: A- A A+

¿ No sabe cómo leer una tablatura o un acorde ?

curso de ukulele

A|------------------4-2-4-2----555-444---------------------------------------|
E|---------------------------------------------------------------------------|
C|---------------------------------------------------------------------------|
G|-1-1-1-2-2-2-2-1---------2-----------22222222------------------------------|


A|---------------------------4--5-5-5-4-4-4----------------------------------|
E|---------------------------------------------------------------------------|
C|------ 2-2-2-2-------------------------------------------------------------|
G|-1-1-1----------1-2-4-2-1-------------------2----------------------------|

 

Comentarios (0)
Ningún comentario :(
¿Necesitas ayuda, un consejo para compartir o simplemente quieres hablar sobre esta canción? Comience la discusión

Debes iniciar sesión para unirte a la discusión
o Registrarse

 

Acerca de esta canción

No hay información por esta canción.