Titanium (Riff) Tab por David Guetta Ft. Sia

tablatura Ukulele sin acordes.

ImprimirAñadir esta tab a su SongBook
Tablature / ChordsFont size: A- A A+

¿ No sabe cómo leer una tablatura o un acorde ?

curso de ukulele

A|----------------------------------------|
E|---4=4-3-------3-3--------3-------------|
C|-0-------2-2-------2-2-3----2-3-0------|
G|----------------------------------------|


A|----------------------------------------|
E|--4-4-3------3-3---------3--------------|
C|---------2-2-------2-2-3---2-3-0------8-8-6--3-3-6-6|
G|----------------------------------------|


A|--------6-5-3---3-3--1-----1-1---------6-3-5----|
E|3-3-3------------------3-3-----3-3-3--------------|
C|------------------------------------------------|
G|------------------------------------------------|

 

Comentarios (0)
Ningún comentario :(
¿Necesitas ayuda, un consejo para compartir o simplemente quieres hablar sobre esta canción? Comience la discusión

Debes iniciar sesión para unirte a la discusión
o Registrarse

 

Acerca de esta canción

No hay información por esta canción.