Life On Mars? Tab por David Bowie

tablatura Ukulele sin acordes.

Añadir esta tab a su SongBook
Tablature / ChordsFont size: A- A A+

¿ No sabe cómo leer una tablatura o un acorde ?

curso de ukulele

A  :0-----------1-3-|0-----------1-3-|0-----------1-3-|5-0-------0-3-0----|
E :1---1-----1-1-1-|0---0-----0-0---|5---------5-----|----3---2-------2--|
C :0-----0---0-0-0-|0-----0---0-----|3---3-0---0-----|------2-----------2|
G :2---------2-----|2---------2-----|2---------------|-------------------|

A :1------------5---|1-5---1-----1-5-|1-------------1-|1-3---1-----1-0-|
E :3-----3------3---|3-----3---3-3---|3---------0-3---|3---3-------3---|
C :-----------------|2-----2-----2---|0-------0-------|0-----0---0-0---|
G :--------12-------|----------------|3-----0---------|3-----------3---|

A :0-------0-------|0-------3-------|--------0-1---1-|
E :1-------1--3--1-|0---0---5-------|5---------------|
C :0-------0-------|0-------0---0---|3---0-3---------|
G :2-------2-------|2-------5-------|2-----------5---|

A :------5-----0-----0-3-0|1---1------5-1---|5-6-5-3---1-5---|
E :5---3-----3-----2------|3-3--------3---3-|3-----3---3-----|
C :--------2-----2--------|2----------2-----|0-----0---------|
G :-----------------------|------12---------|3---------------|

A :1-----1---------|--3---------3---|3-------6-------|3---------------|
E :0---------3---0-|3-----0---3---3-|4-------8-------|4---------------|
C :2---2-----------|----0-----0-----|3-------8-------|4---------------|
G :0---------------|----------------|5-------8-------|5---------------|

A :3---------------|3---------------|4---------------|0---------------|
E :4---------------|4---------------|1---------------|1---------------|
C :5---------------|6---------------|1---------------|1---------------|
G :5---------------|5---------------|1---------------|2---------------|

A :1---------------|2---------------|1---------------|6-6-5-3-----3---|
E :1---------------|1---------------|1---------------|3-------6-------|
C :1---------------|1---------------|2---------------|3---------------|
G :3---------------|1---------------|3---------------|----------------|

A :1---------------|6---5---3---5---|0---------------|3---------------|
E :1---------------|2---------------|1---------------|1---------------|
C :2---------------|2---------------|0---------------|0---------------|
G :0---------------|3---------------|2---------------|1---------------|

A :3---------------|4---------3-4---|1---------------|6-6-5-3-----3---|
E :3---------------|2-----2---------|1---------------|3-------6-------|
C :3---------------|3---3-----------|2---------------|3---------------|
G :3---------------|3-------3-------|3---------------|----------------|

A :1---------------|6---5---3---5---|0---------------|3---------------|
E :1---------------|2---------------|1---------------|1---------------|
C :2---------------|2---------------|0---------------|0---------------|
G :0---------------|3---------------|2---------------|1---------------|

A :3---------------|4---------3-4---|1-------1-------|1-------5-------|
E :3---------------|2-----2---------|1---1-3-1-------|2-------2-------|
C :3---------------|3---3-----------|2-2-----2-------|2-------2-------|
G :3---------------|3-------3-------|0-------0-------|3-------3-------|

A :1-------1-------|5---------------|0-------------3-|0-----------------|
E :3-------3-------|3-------3-----1-|1---------------|2----------------1|
C :2-------2-------|4-------4-0-2---|0---------------|3-----------------|
G :3-------3-------|0-------0-------|2---------------|2------------0-0--|

A :1---------------|2------------------|3-2-3-----------|3-2-3-----------|
E :3---------------|4-4-0--------------|0---------------|1---------------|
C :2---------------|2-----2------------|0---------------|2---------------|
G :0---------------|1------------------|2---------------|3---------------|

A :3-1-------------|0-----------1-3-|0-----------1-3-|0-----------1-3-|
E :1---4-1-3-1-3-4-|1---1-----1-1-1-|0---0-----0-0---|5---------5-----|
C :1---------------|0-----0---0-0-0-|0-----0---0-----|3---3-0---0-----|
G :3---------------|2---------2-----|2---------2-----|2---------------|

A :5-0-------0-3-0----|1------------5---|1-5---1-----1-5-|1-------------1-|
E :----3---2-------2--|3-----3------3---|3-----3---3-3---|3---------0-3---|
C :------2-----------2|-----------------|2-----2-----2---|0-------0-------|
G :-------------------|--------12-------|----------------|3-----0---------|

A :1-3---1-----1-0-|0-------0-------|0-------3-------|--------0-1---1-|
E :3---3-------3---|1-------1--3--1-|0---0---5-------|5---------------|
C :0-----0---0-0---|0-------0-------|0-------0---0---|3---0-3---------|
G :3-----------3---|2-------2-------|2-------5-------|2-----------5---|

A :------5-----0-----0-3-0|1---1------5-1---|5-6-5-3---1-5---|
E :5---3-----3-----2------|3-3--------3---3-|3-----3---3-----|
C :--------2-----2--------|2----------2-----|0-----0---------|
G :-----------------------|------12---------|3---------------|

A :1-----1---------|--3---------3---|3-------6-------|3---------------|
E :0---------3---0-|3-----0---3---3-|4-------8-------|4---------------|
C :2---2-----------|----0-----0-----|3-------8-------|4---------------|
G :0---------------|----------------|5-------8-------|5---------------|

A :3---------------|3---------------|4---------------|0---------------|
E :4---------------|4---------------|1---------------|1---------------|
C :5---------------|6---------------|1---------------|1---------------|
G :5---------------|5---------------|1---------------|2---------------|

A :1---------------|2---------------|1---------------|6-6-5-3-----3---|
E :1---------------|1---------------|1---------------|3-------6-------|
C :1---------------|1---------------|2---------------|3---------------|
G :3---------------|1---------------|3---------------|----------------|

A :1---------------|6---5---3---5---|0---------------|3---------------|
E :1---------------|2---------------|1---------------|1---------------|
C :2---------------|2---------------|0---------------|0---------------|
G :0---------------|3---------------|2---------------|1---------------|

A :3---------------|4---------3-4---|1---------------|6-6-5-3-----3---|
E :3---------------|2-----2---------|1---------------|3-------6-------|
C :3---------------|3---3-----------|2---------------|3---------------|
G :3---------------|3-------3-------|3---------------|----------------|

A :1---------------|6---5---3---5---|0---------------|3---------------|
E :1---------------|2---------------|1---------------|1---------------|
C :2---------------|2---------------|0---------------|0---------------|
G :0---------------|3---------------|2---------------|1---------------|

A :3---------------|4---------3-4---|1-------1-------|1-------5-------|
E :3---------------|2-----2---------|1---1-3-1-------|2-------2-------|
C :3---------------|3---3-----------|2-2-----2-------|2-------2-------|
G :3---------------|3-------3-------|0-------0-------|3-------3-------|

A :1-------1-------|5-------0-------|0---------------|0---------0-----|
E :3-------3-------|3-----1---3-1-3-|1---------------|2---0-2-----2---|
C :2-------2-------|4-0-2-----------|0---------------|3-2-----------2-|
G :3-------3-------|0---------------|2---------------|2---------------|

A :3-1---1------------|1-------1---5---|8-6-5---6-5-----5--------------|
E :3------------------|1---1-----------|------8-----8-6---8-6-5-8-6-5--|
C :2------------------|2---------------|------------------------------7|
G :0---0--------------|0---------------|-------------------------------|

A :1------------------------------|1-------1-------|1-------3-------|
E :--5-3-1-5-3-1---3-1-----1------|3-------3-------|2-------2-------|
C :--------------3-----3-2---3-2-0|3-------3-------|3-------3-------|
G :-------------------------------|3-------3-------|3-------3-------|

A :5---------------|
E :1---------------|
C :2---------------|
G :3---------------|

 

Comentarios (1)
Debes iniciar sesión para unirte a la discusión
o Registrarse

 

DanteH13 avatar
flag for ID(ISO2) (Jakarta)
Amazing!
06 Dec 2018
Acerca de esta canción

No hay información por esta canción.