Darkness Descends Tab por Dark Angel

tablatura Ukulele sin acordes.

Añadir esta tab a su SongBook
Tablature / ChordsFont size: A- A A+

¿ No sabe cómo leer una tablatura o un acorde ?

curso de ukulele

A|6---------------------------------------|
E|--5-2-4-1~--000-1--000-1----------------|
C|----------------------------------------|
G|----------------------------------------|

This part x3
A|----------------------------------------|
E|-0000-0000-0000-0000001-----------------|
C|----------------------------------------|
G|----------------------------------------|

A|----------------------------------------|
E|-0000-0000-0000-000000000---------------|
C|----------------------------------------|
G|----------------------------------------|

A|-----------------------------------------------|
E|-0000-0000-0000-0000001-0000-0000-0000-0000001-|
C|-----------------------------------------------|
G|-----------------------------------------------|

A|---------------------------------------------------|
E|-0000-0000-0000-000000000-0000-0000-0000-000000000-|
C|---------------------------------------------------|
G|---------------------------------------------------|

A|-----3h4p3h4p3h4-2h3p2h3p2h3-0h1p0h1p0h1-----3h4p3h4p3h4-2h3p2h3p2h3---------|
E|-000-------------------------------------000---------------------------000-1-|
C|-----------------------------------------------------------------------------|
G|-----------------------------------------------------------------------------|

A|-----3h4p3h4p3h4-2h3p2h3p2h3-0h1p0h1p0h1-----3h4p3h4p3h4-2h3p2h3p2h3---------|
E|-000-------------------------------------000---------------------------000-1-|
C|-----------------------------------------------------------------------------|
G|-----------------------------------------------------------------------------|

A|-----------------------------------------------------|
E|-00000000-2-4-00000000-2-4-00000000-2-4-00000000-2-4-|
C|-----------------------------------------------------|
G|-----------------------------------------------------|

Play twice
A|-------------------------------------------------------------------------|
E|-3-000-1-000000000-2-000-1-000000000-3-000-1-000000000-2-000-1-000000000-|
C|-------------------------------------------------------------------------|
G|-------------------------------------------------------------------------|

A|----------------------------------------|
E|-1111111111111111-1111111111111111------|
C|----------------------------------------|
G|----------------------------------------|

A|-----------2-----------2-----------2--------------|
E|-00000-1p0---00000-1p0---00000-1p0----00000-1p0-1-|
C|--------------------------------------------------|
G|--------------------------------------------------|

A|-----------2-----------2-----------2--------------|
E|-00000-1p0---00000-1p0---00000-1p0----00000-1p0-1-|
C|--------------------------------------------------|
G|--------------------------------------------------|

Play twice
A|-------------------------------------------------------------------------|
E|-3-000-1-000000000-2-000-1-000000000-3-000-1-000000000-2-000-1-000000000-|
C|-------------------------------------------------------------------------|
G|-------------------------------------------------------------------------|

A|----------------------------------------|
E|-1111111111111111-1111111111111111------|
C|----------------------------------------|
G|----------------------------------------|

A|-----------2-----------2-----------2--------------|
E|-00000-1p0---00000-1p0---00000-1p0----00000-1p0-1-|
C|--------------------------------------------------|
G|--------------------------------------------------|

A|-----------2-----------2-----------2--------------|
E|-00000-1p0---00000-1p0---00000-1p0----00000-1p0-1-|
C|--------------------------------------------------|
G|--------------------------------------------------|

A|------0h1/3------0h1/3------0h1/3------0h1/3-|
E|-0000-------0000-------0000-------0000-------|
C|---------------------------------------------|
G|---------------------------------------------|

A|------2h3/5------2h3/5------2h3/5------2h3/5-|
E|-2222-------2222-------2222-------2222-------|
C|---------------------------------------------|
G|---------------------------------------------|

A|------0h1/3------0h1/3------0h1/3------0h1/3-|
E|-0000-------0000-------0000-------0000-------|
C|---------------------------------------------|
G|---------------------------------------------|

A|------2h3/5------2h3/5------2h3/5------2h3/5-|
E|-2222-------2222-------2222-------2222-------|
C|---------------------------------------------|
G|---------------------------------------------|

A|-----------------------------------------------------|
E|-00000000-2-4-00000000-2-4-00000000-2-4-00000000-2-4-|
C|-----------------------------------------------------|
G|-----------------------------------------------------|

Play twice
A|-------------------------------------------------------------------------|
E|-3-000-1-000000000-2-000-1-000000000-3-000-1-000000000-2-000-1-000000000-|
C|-------------------------------------------------------------------------|
G|-------------------------------------------------------------------------|

A|----------------------------------------|
E|-1111111111111111-1111111111111111------|
C|----------------------------------------|
G|----------------------------------------|

Play twice
A|-------------------------------------------------------------------------|
E|-3-000-1-000000000-2-000-1-000000000-3-000-1-000000000-2-000-1-000000000-|
C|-------------------------------------------------------------------------|
G|-------------------------------------------------------------------------|

A|----------------------------------------|
E|-1111111111111111-1111111111111111------|
C|----------------------------------------|
G|----------------------------------------|

Play 3 times
A|-----------2-----------2-----------2-------------|
E|-00000-1p0---00000-1p0---00000-1p0---00000-1p0-1-|
C|-------------------------------------------------|
G|-------------------------------------------------|

A|-----------------------------------------------------|
E|-00000000-2-4-00000000-2-4-00000000-2-4-00000000-2-4-|
C|-----------------------------------------------------|
G|-----------------------------------------------------|

 

Comentarios (0)
Ningún comentario :(
¿Necesitas ayuda, un consejo para compartir o simplemente quieres hablar sobre esta canción? Comience la discusión

Debes iniciar sesión para unirte a la discusión
o Registrarse

 

Acerca de esta canción

No hay información por esta canción.