I Know A Place (cavetown Cover) (Intro) Tab por Conan Gray

tablatura Ukulele sin acordes.

ImprimirAñadir esta tab a su SongBook
Tablature / ChordsFont size: A- A A+

¿ No sabe cómo leer una tablatura o un acorde ?

curso de ukulele

A|------3----------------------------------|  Play this one twice
E|-1---------------------------------------|
C|----------------------------------------|
G|----2-----2-------------------------------|




A|---------3-------------------------------| twice again
E|--3--------------------------------------|
C|----------------------------------------|
G|------2------2----------------------------|




A|----------3------------------------------|
E|--5--5---------5---------------------------| x2
C|----------------------------------------|
G|----------------------------------------|




A|-------------3---------------------------|
E|---3---3----------3------------------------| x2
C|----------------------------------------|
G|----------------------------------------|

 

Comentarios (2)
Debes iniciar sesión para unirte a la discusión
o Registrarse

 

gjdhbsjveiuw avatar
Then for anyone who's curious about the chorus, it's DFBbF EGCG FADA

A|----------1----------------------3----------------------5----------------5--------|
E|------1------1-------------3---------3-----------5----------5------5--------5---|
C|--2-------------------4----------------------5------------------------------------|
G|-----------------------------------------------------------------------------------|

At least that's how I play it ¯\_(ツ)_/¯
06 Jun 2018
LouieFluenza avatar
flag for US(ISO2) (Katy)
How am I supposed to play this
02 Apr 2018
Acerca de esta canción

No hay información por esta canción.