Remember Me (simple Fingerstyle Version) Tab por CoCo

tablatura Ukulele sin acordes.

8.9/10
ImprimirAñadir esta tab a su SongBook

Tablature / Chords (Canción entera)

Font size: A- A A+

Artista: 
Album:  desconocido
Key: desconocidotablatura (sin acordes )
A|5-7-3-----------3-3-5-5-5-7-7-5----|
E|------3~--3-0-1-----------------3~-|
C|-----------------------------------|
G|-----------------------------------|

A|7-8-7-7-5-5~------12-12-10-10-8-8---10-8-8-7-7~--|
E|----------------------------------8--------------|
C|------------12-12--------------------------------|
G|-------------------------------------------------|

A|----10-10-8-8-7-7---7-5-5---5---------|
E|------------------8--------8----------|
C|5-5-----------------------------------|
G|--------------------------------------|


A|5-7-3-----------3-3-5-5-5-7-7-5----|
E|------3~--3-0-1-----------------3~-|
C|-----------------------------------|
G|-----------------------------------|

A|7-8-7-7-8-10~----3-3-2-2-0-0-0-2-2---0~|
E|--------------------------------0--0---|
C|-------------0-0-----------------------|
G|---------------------------------------|

A|-------------3-3-5-5~------3~-3-3-3|
E|--------3-3------------------------|
C|0-0-3-3----------------------------|
G|-----------------------------------|

Tab por , 16 ago 2019

Comentarios (1)

Comentar
¡Comparte tus patrones de rasgueo, acordes o consejos para tocar este tab!
Filtrar por:
Juma7 avatar
Sound really good
17 Aug 2019
Comentario

Acerca de esta canción: Remember Me (simple Fingerstyle Version)

No hay información por esta canción.

¿Has versionado a Remember Me (simple Fingerstyle Version) con tu Ukelele? Comparte tu trabajo!
Submit a cover