Yellow Love By Citizen Tab por Citizen

tablatura Ukulele sin acordes.

Añadir esta tab a su SongBook
Tablature / ChordsFont size: A- A A+

¿ No sabe cómo leer una tablatura o un acorde ?

curso de ukulele

S                                            
A|-2-2-2-2-2-2-2-2-2-2-2-2-2-2-2-2-------------------------------------------|
E|---------------------------------2-2-2-2-2-2-2-2-3-3-3-2-2-2-2-2-----------|
C|-2-2-2-2-2-2-2-2-2-2-2-2-2-2-2-2-2-2-2-2-2-2-2-2-2-2-2-2-2-2-2-2-----------|
G|---------------------------------------------------------------------------|
S
A|-2-2-2-2-2-2-2-2-2-2-2-2-2-2-2-2-------------------------------------------|
E|---------------------------------2-2-2-2-2-2-2-2-3-3-3-2-2-2-2-2-----------|
C|-2-2-2-2-2-2-2-2-2-2-2-2-2-2-2-2-2-2-2-2-2-2-2-2-2-2-2-2-2-2-2-2-----------|
G|---------------------------------------------------------------------------|
S S
A|-----------------------------------------2-2-2-2-2-2-2-2-2-2-2-2-2-2-2-2---|
E|-3-3-3-3-3-3-3-3-3--3--3--3--3--3--3--3------------------------------------|
C|-4-4-4-4-4-4-4-4-------------------------2-2-2-2-2-2-2-2-2-2-2-2-2-2-2-2---|
G|------------------4--4--4--4--4--4--4--4-----------------------------------|
A|-7-7-7-7-7-7-7-7/10--10--10--10--10--10--10--10-\2-2-2-2-2-2-2-2---0-5---2-5-2-----|
E|---------------------------------------------------------2-----3-------3---|
C|-7-7-7-7-7-7-7-7-------------------------2-2-2-2-2-2-2-2-------------------|
G|------------------4--4--4--4--4--4--4--4-----------------------------------|
A|-2-2-2-2-2-2-2-2-0-0-0-2-2-2-2-2--2-2-2-2-2-2-2-2-0-0-0-2-2-2-2-2----------|
E|-----------------2-2-2-3-3-3-3-3------------------2-2-2-3-3-3-3-3----------|
C|-2-2-2-2-2-2-2-2------------------2-2-2-2-2-2-2-2--------------------------|
G|---------------------------------------------------------------------------|
A|-2-2-2-2-2-2-2-2-0-0-0-2-2-2-2-2--2-2-2-2-2-2-2-2---0-5---2-5-2------------|
E|-----------------2-2-2-3-3-3-3-3------------------2-----3-------3----------|
C|-2-2-2-2-2-2-2-2------------------2-2-2-2-2-2-2-2--------------------------|
G|---------------------------------------------------------------------------|

 

Comentarios (0)
Ningún comentario :(
¿Necesitas ayuda, un consejo para compartir o simplemente quieres hablar sobre esta canción? Comience la discusión

Debes iniciar sesión para unirte a la discusión
o Registrarse

 

Acerca de esta canción

No hay información por esta canción.