I Felt Free Tab por Circa Survive

tablatura Ukulele sin acordes.

Añadir esta tab a su SongBook
Tablature / ChordsFont size: A- A A+

¿ No sabe cómo leer una tablatura o un acorde ?

curso de ukulele

S             S                                     
A|---2--x--2--2-2--2----x-------------x---------------x---------------|
E|---2-----2--2-2--2-6-----6--6--6-4-----4--4--4-4-4-----4--4-4-4-----|
C|------x------------3--x--3--3--3-1--x--1--1--1-1-1--x--1--1-1-1-----|
G|---5--x--5--4-4--4-9--x--9--9--9-7--x--7--7--7-7-7--x--7--7-7-7-----|

A|------------5-----------------------|
E|--4---------8----------4-----------|
C|--3---------5----------1-----------|
G|--5---------10----------6-----------|

 

Comentarios (0)
Ningún comentario :(
¿Necesitas ayuda, un consejo para compartir o simplemente quieres hablar sobre esta canción? Comience la discusión

Debes iniciar sesión para unirte a la discusión
o Registrarse

 

Acerca de esta canción

No hay información por esta canción.