Get Out (Solo) Tab por Circa Survive

tablatura Ukulele sin acordes.

Añadir esta tab a su SongBook
Tablature / ChordsFont size: A- A A+

¿ No sabe cómo leer una tablatura o un acorde ?

curso de ukulele

A|--------------------------------------------------------------------------|
E|------------------3--5--------------------3--5--------------------3--5----|
C|--------------------------------------------------------------------------|
G|7--9--7--9--5--4--------7--9--7--9--5--4--------7--9--7--9--5--4----------|

A|-----------|
E|-----------|
C|-----------|
G|7--9--7--9-|

A|--------------------------------------------------------------------------|
E|------------------3--5--------------------3--5--------------------3--5----|
C|--------------------------------------------------------------------------|
G|7--9--7--9--5--4--------7--9--7--9--5--4--------7--9--7--9--5--4----------|
H P
A|--------------|
E|------------5-|
C|--------------|
G|7--9--7--5----|

A|-----------------------------------------------------------------------------|
E|3--5--3--5--------------3--5--3--5--------------3--5--3--5----------------|
C|--------------------------------------------------------------------------|
G|------------10--9--5--7--------------10--9--5--7--------------10--9--5--7----|

A|-----------|
E|3--5--3--5-|
C|-----------|
G|-----------|

A|--------------------------------------------------------------------------|
E|3--5--3--5--------------3--5--3--5--------------------3--5--------5-----|
C|------------------------------------------------------------------------|
G|------------10--9--5--7--------------10--9--5--7--7--9--------5--4-----9--|

A|------------------------------------------|
E|------5-----------5-----------------------|
C|------------------------------------------|
G|5--4-----4--5--4--------------------------|

 

Comentarios (0)
Ningún comentario :(
¿Necesitas ayuda, un consejo para compartir o simplemente quieres hablar sobre esta canción? Comience la discusión

Debes iniciar sesión para unirte a la discusión
o Registrarse

 

Acerca de esta canción

No hay información por esta canción.