La Llorona (Intro) Tab por Chavela Vargas

tablatura Ukulele sin acordes.

ImprimirAñadir esta tab a su SongBook
Tablature / ChordsFont size: A- A A+

¿ No sabe cómo leer una tablatura o un acorde ?

curso de ukulele

A|-------------------------------||
E|---1--0--1------------------1--||
C|-0-----------------------------||
G|-----------0--1--5--3--1--0----||

A|-------------------------------||
E|----------1------------4-------||
C|-3--2--3------------------3----||
G|------------0--3--1--0---------||

A|-------------------------------------||
E|------------1--1---1--0--1------0----||
C|-1--0--1--3-----------------------0--||
G|-----------------0---------0--0------||

 

Comentarios (0)
Ningún comentario :(
¿Necesitas ayuda, un consejo para compartir o simplemente quieres hablar sobre esta canción? Comience la discusión

Debes iniciar sesión para unirte a la discusión
o Registrarse

 

Acerca de esta canción

No hay información por esta canción.