Save Me (Intro) Tab por BTS

tablatura Ukulele sin acordes.

ImprimirAñadir esta tab a su SongBook
Tablature / ChordsFont size: A- A A+

¿ No sabe cómo leer una tablatura o un acorde ?

curso de ukulele

A|------------------------------------------------|
E|--------------------------5-------5--3----------|
C|---------------------------------------4--------|
G|--9---9---9--7--4--4-7--4-----4-----------------|

A|------------------------------------------------|
E|-------------------------------5-------5--3-----|
C|--------------------------------------------4---|
G|--4-7--9---9---9--7--4--4-7--4-----4------------|

 

Comentarios (0)
Ningún comentario :(
¿Necesitas ayuda, un consejo para compartir o simplemente quieres hablar sobre esta canción? Comience la discusión

Debes iniciar sesión para unirte a la discusión
o Registrarse

 

Acerca de esta canción

No hay información por esta canción.