More Than A Feeling (Solo) Tab por Boston

tablatura Ukulele sin acordes.

ImprimirAñadir esta tab a su SongBook
Tablature / ChordsFont size: A- A A+

¿ No sabe cómo leer una tablatura o un acorde ?

curso de ukulele

H P                                                    
A|---------------------------------------------------------------------------|
E|------------2---2-3--2-3-2-------3-5--3------------------------------------|
C|------2--4------------------4-2--------------------------------------------|
G|---6-----------------------------------------------------------------------|
H P H
A|------------7---7-----7----------------------------------------------------|
E|------3--2----2---------2--------------------------------------------------|
C|---2---------------2-------------------------------------------------------|
G|---------------------------------------------------------------------------|
H P
A|---------------------------------------------------------------------------|
E|------3--2-3-2-------------------------------------------------------------|
C|---2------------4--2--4-5--4--2--------------------------------------------|
G|-----------------------b--b------6-----------------------------------------|
H P
A|---------------------------------------------------------------------------|
E|---5--3--2--2-3--2-3-2--------5--------------------------------------------|
C|------------------------4--2-----------------------------------------------|
G|---------------------------------4-----------------------------------------|
H P
A|---------------------------------------------------------------------------|
E|---5---3--2-3-2-----2------------------------------------------------------|
C|-----------------4---------------------------------------------------------|
G|---------------------------------------------------------------------------|
H P
A|------------7---7-----7----------------------------------------------------|
E|------3--2----2------------------------------------------------------------|
C|---2---------------2-------------------------------------------------------|
G|---------------------------------------------------------------------------|
S H P
A|---------------------------------------------------------------------------|
E|---------------------------------------------------------------------------|
C|---2-6---4-6--4------------------------------------------------------------|
G|-----------------7---6---7-------------------------------------------------|
H P
A|----------------------------------------------------------------------------|
E|---------------------------------------------------------------------------|
C|---------------------------------------------------------------------------|
G|---6--7--6---4---9--11------------------------------------------------------|

 

Comentarios (0)
Ningún comentario :(
¿Necesitas ayuda, un consejo para compartir o simplemente quieres hablar sobre esta canción? Comience la discusión

Debes iniciar sesión para unirte a la discusión
o Registrarse

 

Acerca de esta canción

No hay información por esta canción.