You Give Love A Bad Name Tab por Bon Jovi

tablatura Ukulele sin acordes.

10/10
ImprimirAñadir esta tab a su SongBook

Tablature / Chords (

Font size: A- A A+

Artista: 
Año:  1986
Key: desconocidotablatura (sin acordes )
b - bend
~ - vibrato
br - bend/release

Intro
A|-8b10-8~-6-|-8b10r8-6---------|-8b10-8~-6-|-8b10r8-6----|-8b10-8~-6-|-8b10r8-6---------|-8b10-8~~-|
E|-----------|-----------8--6-8-|-----------|----------8~-|-----------|-----------8--6-8-|----------|
C|-----------|------------------|-----------|-------------|-----------|------------------|----------|
G|-----------|------------------|-----------|-------------|-----------|------------------|----------|
| | | | | | |_| | | | |______| | | | | | | | |_| | |

A|---------------------|-------------------|---------------------|-6~~--|
E|-8------8-11-11-8----|-8------8-11-11-8~-|-8------8-11-11-8----|-6~~--|
C|---7-10-----------10-|---7-10------------|---7-10-----------10-|------|
G|---------------------|-------------------|---------------------|------|
|_| |__| |__| |_| |_| |__| |__| | |_| |__| |__| |_| |

⇢ ¿No estás contento con esta tab? Ver 1 otra(s) versión(es)

Tab por , 12 nov 2018

Comentarios (0)

Ningún comentario :(
¿Necesitas ayuda, un consejo para compartir o simplemente quieres hablar sobre esta canción? Comience la discusión

Comentar
¡Comparte tus patrones de rasgueo, acordes o consejos para tocar este tab!

Top Tabs & Acordes de Bon Jovi, ¡no te pierdas estas canciones!

Acerca de esta canción: You Give Love A Bad Name

No hay información por esta canción.

¿Has versionado a You Give Love A Bad Name con tu Ukelele? Comparte tu trabajo!
Submit a cover