Blindsided Tab por Bon Iver

tablatura Ukulele sin acordes.

Añadir esta tab a su SongBook
Tablature / ChordsFont size: A- A A+

¿ No sabe cómo leer una tablatura o un acorde ?

curso de ukulele

Intro / Verse
A|------------------------------------------| x3
E|---3---3---3---3---3---3---3---3----------|
C|------------------------------------------|
G|-----------------------------0---0--------|


A|------------------------------------------|
E|---3---3---3---3---3---3---3---3----------|
C|------------------------------------------|
G|------------------------------------------|


A|---------2---------------------------------------|
E|---3---3---3---3---3---3---3---3---3---3---3---3-|
C|-------------------------------------------------|
G|---2---------------------------------------------|


A|-----2------------------------------------|
E|---3---3---3---3---3---3---3---3----------|
C|------------------------------------------|
G|---------2---0-2-----0--------------------|


A|-----2------------------------------------|
E|---3---3---3------------------------------|
C|---------------4---4---4---4---4----------|
G|---------2---0-2-----0--------------------|


A|-----2------------------------------------|
E|---------------3---3---3---3---3---3---3--|
C|---4---4---4------------------------------|
G|---------2---0-2-----0--------------------|


# Chorus:

# (Let each ring)
A|----5-------------2-------------------|
E|----2------2-------------0------------|
C|----4------2------2------0------------|
G|----0------0------0------0------------|


# (back to normal)
A|---5--------------------------------------|
E|---3---3---3---3---3---3---3---3----------|
C|------------------------------------------|
G|---------0--------------------------------|


A|---5--------------------------------------|
E|------------------------------------------|
C|---6---6---6---6---6---6---6---6----------|
G|---------2--------------------------------|


A|---3--------------------------------------|
E|------------------------------------------|
C|---2---0---0---0---0---0---0---0----------|
G|---------0--------------------------------|

# Play verse, chorus again, then

A|----------------------------------------|
E|---0-----------------2------------------|
C|---0-----------------2------------------|
G|---0-----------------0------------------|

 

Comentarios (2)
Debes iniciar sesión para unirte a la discusión
o Registrarse

 

Benpaco avatar
flag for US(ISO2) (California)
I would reccomend it, but its not neccessary - I don't own a capo, but it still works for me without.
22 Nov 2012
gfp6302 avatar
flag for US(ISO2) (Eugene)
capo 3.
15 Oct 2012
Acerca de esta canción

No hay información por esta canción.