Ivy And Gold (Riff) Tab por Bombay Bicycle Club

tablatura Ukulele sin acordes.

Añadir esta tab a su SongBook
Tablature / ChordsFont size: A- A A+

¿ No sabe cómo leer una tablatura o un acorde ?

curso de ukulele

A A capo is needed on the 1st fret. Need to be tuned with a low G G. I have included the fret taken up by the capo on the tab.

---0---------l-------------I
-4---4-0-----I---0---------I
---------3-0-I-3---3-0-----I
-------------I---------3-0-I

---0---------I-------------I
-4---4-0-----I-------------I
---------3-0-I-3------5--3-I
-------------I-------------I

 

Comentarios (2)
Debes iniciar sesión para unirte a la discusión
o Registrarse

 

wardyssexy avatar
more
02 Dec 2010
amy123 avatar
flag for GB(ISO2) (London)
wonderful tab - dead accurate
24 Nov 2010
Acerca de esta canción

No hay información por esta canción.