Parklife Tab por Blur

tablatura Ukulele sin acordes.

ImprimirAñadir esta tab a su SongBook
Tablature / ChordsFont size: A- A A+

¿ No sabe cómo leer una tablatura o un acorde ?

curso de ukulele

A|-----------9----------0---------------------------------------------------------------|
E|-12----3-----------------------------------------------------------------------------|
C|-11---x----9---------9---x-3---------------------------------------------------------|
G|-13--------9---x2----9---------------------------------------------------------------|
A|--------2---5-slide-7---5----8---9----8----9----------------------------------------|
E|-0---4-----------------------6---7----6----7----------------------------------------|
D|------------------------------------------------------------------------------------|
G|------------------------------------------------------------------------------------|

A|--5-------------------------------------------5--x2----7---7---7----8-----------------|
E|--3--0---5---0---7---0----5----0----3----0----3--------5---5---6---7----------------|
C|--7-x----2--x----4--x-----2---x-----0---x-----7--------9---9---10---11----------------|
G|--4------7-------9--------7---------5---------4--------7---6---7---8----------------|

 

Comentarios (0)
Ningún comentario :(
¿Necesitas ayuda, un consejo para compartir o simplemente quieres hablar sobre esta canción? Comience la discusión

Debes iniciar sesión para unirte a la discusión
o Registrarse

 

Acerca de esta canción

No hay información por esta canción.