People Help The People Tab por Birdy

6 Acordes utilizados en la canción: D, Bm, A, Asus4, Em, F#

Añadir esta tab a su SongBook

Ver esos acordes para el baritono

Transpose chords:
Acordes:
Mantén los accordes en la pantalla mientras te desplazas
Tablature / ChordsFont size: A- A A+

¿ No sabe cómo leer una tablatura o un acorde ?

curso de ukulele

Tuning standard :
Capo 1

Intro

D D Bm Bm
e|-----------------------------------------------|
B|----------------1-----------1------0-----1--0--|
G|--2------0--------------0-------2----2---------|
D|------3----3------------------2--------2-------|
A|----3--------3---------------------------------|
E|-----------------------------------------------|


D D Bm Bm
e|----------------------s12-----------------------------s12-------|
B|--------------------------13--12-----1-------0----1------13--12-|
G|--2-------0----2--------------------------2----2----------------|
D|-------3----3--------------------------2---------2--------------|
A|----3--------3--------------------------------------------------|
E|----------------------------------------------------------------|


Verse
D D Bm Bm
God knows what is hiding in that weak and drunken heart
A A Asus4 Asus4 A A
I guess you kissed the girls and made them cry
D D
those Hardfaced Queens of misadventure
D D Bm Bm
God knows what is hiding in those weak and sunken eyes
A A Asus4 Asus4 A A
a Fiery throng of muted angels
D D
Giving love and getting nothing back


Chorus
D D Bm Bm
People help the people
A A
And if your homesick,
D D
give me your hand and i'll hold it
D D Bm Bm
People help the people
A A
And nothing will drag you down
Em Em D D D D
Oh and if I had a brain,
Em Em D D D D
Oh and if I had a brain
Em Em D D D D
i'd be cold as a stone and rich as the fool
Em Em F# F# D D D D
That turned, all those good hearts away


Verse (2)
D D Bm Bm
God knows what is hiding, in that world of little consequence
A A Asus4 Asus4 A A
Behind the tears, inside the lies
D D D D
A A thousand slowly dying sunsets
D D Bm Bm
God knows what is hiding in those weak and drunken hearts
A A Asus4 Asus4 A A
I guess the loneliness came knocking
D D D D
No one needs to be alone, oh save me


Chorus
D D Bm Bm
People help the people
A A
And if your homesick,
D D
give me your hand and i'll hold it
D D Bm Bm
People help the people
A A
And nothing will drag you down
Em Em D D D D
Oh and if I had a brain,
Em Em D D D D
Oh and if I had a brain
Em Em D D D D
i'd be cold as a stone and rich as the fool
Em Em F# F# D D D D
That turned, all those good hearts away


Instrumental (Solo )
D D Bm Bm A A D D
D D Bm Bm A A D D
D D Bm Bm A A D D
na naaa na na naaa

e|--------------||---------------------------------------|
B|--------------||---5--8--5-8-5--8s10--8--10--8--10p8s5-|
G|-----4--5--7--||.--------------------------------------|
D|--7-----------||.--------------------------------------|
A|--------------||---------------------------------------|
E|--------------||---------------------------------------|

e|--------------------------||
B|-------------5------------||
G|-7--5--7--5-----7--5-----.||
D|----------------------7--.|| X 3
A|--------------------------||
E|--------------------------||


Chorus
D D Bm Bm
People help the people
A A
And if your homesick,
D D
give me your hand and i'll hold it
D D Bm Bm
People help the people
A A
And nothing will drag you down
Em Em D D D D
Oh and if I had a brain,
Em Em D D D D
Oh and if I had a brain
Em Em D D D D
i'd be cold as a stone and rich as the fool
Em Em F# F# D D D D->D D
That turned, all those good hearts away

 

Comentarios (0)
Ningún comentario :(
¿Necesitas ayuda, un consejo para compartir o simplemente quieres hablar sobre esta canción? Comience la discusión

Debes iniciar sesión para unirte a la discusión
o Registrarse

 

Acerca de esta canción

No hay información por esta canción.