People Help The People Tab por Birdy

7 Acordes utilizados en la canción: F, Am, G, Gsus4, Dm, C, E

Añadir esta tab a su SongBook
Tablature / ChordsFont size: A- A A+

¿ No sabe cómo leer una tablatura o un acorde ?

curso de ukulele

A|----------------3-----------3------2-----3--2--|
E|------1----1------------------0--------0-------|
C|----0--------0---------------------------------|
G|--2------0--------------0-------2----2---------|


A|-------------------------------------3-------2----3-------------|
E|-------1----1--------------------------0---------0--------------|
C|----0--------0--------------------------------------------------|
G|--2-------0----2-------9--5---4-----------2----2-------9-5---4--|


F F Am Am
God knows what is hiding in that weak and drunken heart
G G Gsus4 Gsus4 G G
I guess you kissed the girls and made them cry
F F
those Hardfaced Queens of misadventure
F F Am Am
God knows what is hiding in those weak and sunken eyes
G G Gsus4 Gsus4 G G
a Fiery throng of muted angels
F F
Giving love and getting nothing back


F F Am Am
People help the people
G G
And if your homesick,
F F
give me your hand and i'll hold it
F F Am Am
People help the people
G G
And nothing will drag you down
Dm Dm C C F F
Oh and if I had a brain,
Dm Dm C C F F
Oh and if I had a brain
Dm Dm C C F F
i'd be cold as a stone and rich as the fool
Dm Dm E E F F F F
That turned, all those good hearts away


F F Am Am
God knows what is hiding, in that world of little consequence
G G Gsus4 Gsus4 G G
Behind the tears, inside the lies
F F F F
A A thousand slowly dying sunsets
F F Am Am
God knows what is hiding in those weak and drunken hearts
G G Gsus4 Gsus4 G G
I guess the loneliness came knocking
F F F F
No one needs to be alone, oh save me


F F Am Am
People help the people
G G
And if your homesick,
F F
give me your hand and i'll hold it
F F Am Am
People help the people
G G
And nothing will drag you down
Dm Dm C C F F
Oh and if I had a brain,
Dm Dm C C F F
Oh and if I had a brain
Dm Dm C C F F
i'd be cold as a stone and rich as the fool
Dm Dm E E F F F F
That turned, all those good hearts away


F F Am Am G G F F
F F Am Am G G F F
F F Am Am G G F F
na naaa na na naaa


A|--------------||---7-----7---7-----------------------7-|
E|--5-----------||------3----3----3s5---3--5---3--5--3---|
C|-----------2--||.--------------------------------------|
G|-----4--5-----||.--------------------------------------|

A|-------------7------------|| x3
E|----------------------5---||
C|-2-----2--------2--------.||
G|----5-----5--------5-----.||


F F Am Am
People help the people
G G
And if your homesick,
F F
give me your hand and i'll hold it
F F Am Am
People help the people
G G
And nothing will drag you down
Dm Dm C C F F
Oh and if I had a brain,
Dm Dm C C F F
Oh and if I had a brain
Dm Dm C C F F
i'd be cold as a stone and rich as the fool
Dm Dm E E F F
That turned, all those good hearts away

 

Comentarios (0)
Ningún comentario :(
¿Necesitas ayuda, un consejo para compartir o simplemente quieres hablar sobre esta canción? Comience la discusión

Debes iniciar sesión para unirte a la discusión
o Registrarse

 

Acerca de esta canción

No hay información por esta canción.