Beautiful Love Tab por Bill Evans

tablatura Ukulele sin acordes.

Añadir esta tab a su SongBook
Tablature / ChordsFont size: A- A A+

¿ No sabe cómo leer una tablatura o un acorde ?

curso de ukulele

A|----0-----------0310---0---02475031--------|
E|--01-310-01---13----313-------------0------|
C|-2------2---------------------------2------|
G|-------------------------------------------|


# Ending 1

A|----0------|
E|-013---0---|
C|-----12----|
G|-----------|



# Ending 2

A|----0-------|
E|-013---10---|
C|-----12--2--|
G|------------|

 

Comentarios (0)
Ningún comentario :(
¿Necesitas ayuda, un consejo para compartir o simplemente quieres hablar sobre esta canción? Comience la discusión

Debes iniciar sesión para unirte a la discusión
o Registrarse

 

Acerca de esta canción

No hay información por esta canción.